  0
SECTION
  2
HEADER
  9
$ACADVER
  1
AC1015
  9
$ACADMAINTVER
 70
    13
  9
$DWGCODEPAGE
  3
ANSI_1252
  9
$INSBASE
 10
0.0
 20
0.0
 30
0.0
  9
$EXTMIN
 10
-44.07372816600614
 20
-13.36765718978195
 30
0.0
  9
$EXTMAX
 10
58.08324696697066
 20
21.35479490763604
 30
0.0
  9
$LIMMIN
 10
0.0
 20
0.0
  9
$LIMMAX
 10
12.0
 20
9.0
  9
$ORTHOMODE
 70
     1
  9
$REGENMODE
 70
     1
  9
$FILLMODE
 70
     1
  9
$QTEXTMODE
 70
     0
  9
$MIRRTEXT
 70
     1
  9
$LTSCALE
 40
1.0
  9
$ATTMODE
 70
     1
  9
$TEXTSIZE
 40
0.5
  9
$TRACEWID
 40
0.05
  9
$TEXTSTYLE
  7
Standard
  9
$CLAYER
  8
0
  9
$CELTYPE
  6
ByLayer
  9
$CECOLOR
 62
   256
  9
$CELTSCALE
 40
1.0
  9
$DISPSILH
 70
     0
  9
$DIMSCALE
 40
1.0
  9
$DIMASZ
 40
0.18
  9
$DIMEXO
 40
0.0625
  9
$DIMDLI
 40
0.38
  9
$DIMRND
 40
0.0
  9
$DIMDLE
 40
0.0
  9
$DIMEXE
 40
0.18
  9
$DIMTP
 40
0.0
  9
$DIMTM
 40
0.0
  9
$DIMTXT
 40
0.18
  9
$DIMCEN
 40
0.09
  9
$DIMTSZ
 40
0.0
  9
$DIMTOL
 70
     0
  9
$DIMLIM
 70
     0
  9
$DIMTIH
 70
     1
  9
$DIMTOH
 70
     1
  9
$DIMSE1
 70
     0
  9
$DIMSE2
 70
     0
  9
$DIMTAD
 70
     0
  9
$DIMZIN
 70
     0
  9
$DIMBLK
  1

  9
$DIMASO
 70
     1
  9
$DIMSHO
 70
     1
  9
$DIMPOST
  1

  9
$DIMAPOST
  1

  9
$DIMALT
 70
     0
  9
$DIMALTD
 70
     2
  9
$DIMALTF
 40
25.4
  9
$DIMLFAC
 40
1.0
  9
$DIMTOFL
 70
     0
  9
$DIMTVP
 40
0.0
  9
$DIMTIX
 70
     0
  9
$DIMSOXD
 70
     0
  9
$DIMSAH
 70
     0
  9
$DIMBLK1
  1

  9
$DIMBLK2
  1

  9
$DIMSTYLE
  2
Standard
  9
$DIMCLRD
 70
     0
  9
$DIMCLRE
 70
     0
  9
$DIMCLRT
 70
     0
  9
$DIMTFAC
 40
1.0
  9
$DIMGAP
 40
0.09
  9
$DIMJUST
 70
     0
  9
$DIMSD1
 70
     0
  9
$DIMSD2
 70
     0
  9
$DIMTOLJ
 70
     1
  9
$DIMTZIN
 70
     0
  9
$DIMALTZ
 70
     0
  9
$DIMALTTZ
 70
     0
  9
$DIMUPT
 70
     0
  9
$DIMDEC
 70
     4
  9
$DIMTDEC
 70
     4
  9
$DIMALTU
 70
     2
  9
$DIMALTTD
 70
     2
  9
$DIMTXSTY
  7
Standard
  9
$DIMAUNIT
 70
     0
  9
$DIMADEC
 70
     0
  9
$DIMALTRND
 40
0.0
  9
$DIMAZIN
 70
     0
  9
$DIMDSEP
 70
    46
  9
$DIMATFIT
 70
     3
  9
$DIMFRAC
 70
     0
  9
$DIMLDRBLK
  1

  9
$DIMLUNIT
 70
     2
  9
$DIMLWD
 70
    -2
  9
$DIMLWE
 70
    -2
  9
$DIMTMOVE
 70
     0
  9
$LUNITS
 70
     2
  9
$LUPREC
 70
     4
  9
$SKETCHINC
 40
0.1
  9
$FILLETRAD
 40
0.5
  9
$AUNITS
 70
     0
  9
$AUPREC
 70
     0
  9
$MENU
  1
.
  9
$ELEVATION
 40
0.0
  9
$PELEVATION
 40
0.0
  9
$THICKNESS
 40
0.0
  9
$LIMCHECK
 70
     0
  9
$CHAMFERA
 40
0.5
  9
$CHAMFERB
 40
0.5
  9
$CHAMFERC
 40
1.0
  9
$CHAMFERD
 40
0.0
  9
$SKPOLY
 70
     0
  9
$TDCREATE
 40
2452597.527578460
  9
$TDUCREATE
 40
2452597.694245127
  9
$TDUPDATE
 40
2453871.556877893
  9
$TDUUPDATE
 40
2453871.723544560
  9
$TDINDWG
 40
0.0040618403
  9
$TDUSRTIMER
 40
0.0040616551
  9
$USRTIMER
 70
     1
  9
$ANGBASE
 50
0.0
  9
$ANGDIR
 70
     0
  9
$PDMODE
 70
     0
  9
$PDSIZE
 40
0.0
  9
$PLINEWID
 40
0.0
  9
$SPLFRAME
 70
     0
  9
$SPLINETYPE
 70
     6
  9
$SPLINESEGS
 70
     8
  9
$HANDSEED
  5
5CD
  9
$SURFTAB1
 70
     6
  9
$SURFTAB2
 70
     6
  9
$SURFTYPE
 70
     6
  9
$SURFU
 70
     6
  9
$SURFV
 70
     6
  9
$UCSBASE
  2

  9
$UCSNAME
  2

  9
$UCSORG
 10
0.0
 20
0.0
 30
0.0
  9
$UCSXDIR
 10
1.0
 20
0.0
 30
0.0
  9
$UCSYDIR
 10
0.0
 20
1.0
 30
0.0
  9
$UCSORTHOREF
  2

  9
$UCSORTHOVIEW
 70
     0
  9
$UCSORGTOP
 10
0.0
 20
0.0
 30
0.0
  9
$UCSORGBOTTOM
 10
0.0
 20
0.0
 30
0.0
  9
$UCSORGLEFT
 10
0.0
 20
0.0
 30
0.0
  9
$UCSORGRIGHT
 10
0.0
 20
0.0
 30
0.0
  9
$UCSORGFRONT
 10
0.0
 20
0.0
 30
0.0
  9
$UCSORGBACK
 10
0.0
 20
0.0
 30
0.0
  9
$PUCSBASE
  2

  9
$PUCSNAME
  2

  9
$PUCSORG
 10
0.0
 20
0.0
 30
0.0
  9
$PUCSXDIR
 10
1.0
 20
0.0
 30
0.0
  9
$PUCSYDIR
 10
0.0
 20
1.0
 30
0.0
  9
$PUCSORTHOREF
  2

  9
$PUCSORTHOVIEW
 70
     0
  9
$PUCSORGTOP
 10
0.0
 20
0.0
 30
0.0
  9
$PUCSORGBOTTOM
 10
0.0
 20
0.0
 30
0.0
  9
$PUCSORGLEFT
 10
0.0
 20
0.0
 30
0.0
  9
$PUCSORGRIGHT
 10
0.0
 20
0.0
 30
0.0
  9
$PUCSORGFRONT
 10
0.0
 20
0.0
 30
0.0
  9
$PUCSORGBACK
 10
0.0
 20
0.0
 30
0.0
  9
$USERI1
 70
     0
  9
$USERI2
 70
     0
  9
$USERI3
 70
     0
  9
$USERI4
 70
     0
  9
$USERI5
 70
     0
  9
$USERR1
 40
0.0
  9
$USERR2
 40
0.0
  9
$USERR3
 40
0.0
  9
$USERR4
 40
0.0
  9
$USERR5
 40
0.0
  9
$WORLDVIEW
 70
     1
  9
$SHADEDGE
 70
     3
  9
$SHADEDIF
 70
    70
  9
$TILEMODE
 70
     1
  9
$MAXACTVP
 70
    64
  9
$PINSBASE
 10
0.0
 20
0.0
 30
0.0
  9
$PLIMCHECK
 70
     0
  9
$PEXTMIN
 10
1.000000000000000E+20
 20
1.000000000000000E+20
 30
1.000000000000000E+20
  9
$PEXTMAX
 10
-1.000000000000000E+20
 20
-1.000000000000000E+20
 30
-1.000000000000000E+20
  9
$PLIMMIN
 10
0.0
 20
0.0
  9
$PLIMMAX
 10
12.0
 20
9.0
  9
$UNITMODE
 70
     0
  9
$VISRETAIN
 70
     1
  9
$PLINEGEN
 70
     0
  9
$PSLTSCALE
 70
     1
  9
$TREEDEPTH
 70
  3020
  9
$CMLSTYLE
  2
Standard
  9
$CMLJUST
 70
     0
  9
$CMLSCALE
 40
1.0
  9
$PROXYGRAPHICS
 70
     1
  9
$MEASUREMENT
 70
     0
  9
$CELWEIGHT
370
    -1
  9
$ENDCAPS
280
     0
  9
$JOINSTYLE
280
     0
  9
$LWDISPLAY
290
     0
  9
$INSUNITS
 70
     1
  9
$HYPERLINKBASE
  1

  9
$STYLESHEET
  1

  9
$XEDIT
290
     1
  9
$CEPSNTYPE
380
     0
  9
$PSTYLEMODE
290
     1
  9
$FINGERPRINTGUID
  2
{E4B57AC3-C5B5-4706-AAAD-0B0690C30FD6}
  9
$VERSIONGUID
  2
{90EC0DDD-13CD-4708-9A1A-3F99CFF6C284}
  9
$EXTNAMES
290
     1
  9
$PSVPSCALE
 40
0.0
  9
$OLESTARTUP
290
     0
  0
ENDSEC
  0
SECTION
  2
CLASSES
  0
CLASS
  1
ACDBDICTIONARYWDFLT
  2
AcDbDictionaryWithDefault
  3
AutoCAD 2000
 90
        0
280
     0
281
     0
  0
CLASS
  1
ACDBPLACEHOLDER
  2
AcDbPlaceHolder
  3
AutoCAD 2000
 90
        0
280
     0
281
     0
  0
CLASS
  1
LAYOUT
  2
AcDbLayout
  3
AutoCAD 2000
 90
        0
280
     0
281
     0
  0
CLASS
  1
DICTIONARYVAR
  2
AcDbDictionaryVar
  3
AutoCAD 2000
 90
        0
280
     0
281
     0
  0
ENDSEC
  0
SECTION
  2
TABLES
  0
TABLE
  2
VPORT
  5
8
330
0
100
AcDbSymbolTable
 70
     4
  0
VPORT
  5
5CC
330
8
100
AcDbSymbolTableRecord
100
AcDbViewportTableRecord
  2
*Active
 70
     0
 10
0.0
 20
0.0
 11
1.0
 21
1.0
 12
7.299990907830688
 22
8.163855846908237
 13
0.0
 23
0.0
 14
0.5
 24
0.5
 15
0.5
 25
0.5
 16
0.0
 26
0.0
 36
1.0
 17
0.0
 27
0.0
 37
0.0
 40
8.910262085283157
 41
1.215864759427828
 42
50.0
 43
0.0
 44
0.0
 50
0.0
 51
0.0
 71
     0
 72
   100
 73
     1
 74
     3
 75
     0
 76
     0
 77
     0
 78
     0
281
     0
 65
     1
110
0.0
120
0.0
130
0.0
111
1.0
121
0.0
131
0.0
112
0.0
122
1.0
132
0.0
 79
     0
146
0.0
  0
ENDTAB
  0
TABLE
  2
LTYPE
  5
5
330
0
100
AcDbSymbolTable
 70
     3
  0
LTYPE
  5
14
330
5
100
AcDbSymbolTableRecord
100
AcDbLinetypeTableRecord
  2
ByBlock
 70
     0
  3

 72
    65
 73
     0
 40
0.0
  0
LTYPE
  5
15
330
5
100
AcDbSymbolTableRecord
100
AcDbLinetypeTableRecord
  2
ByLayer
 70
     0
  3

 72
    65
 73
     0
 40
0.0
  0
LTYPE
  5
16
330
5
100
AcDbSymbolTableRecord
100
AcDbLinetypeTableRecord
  2
Continuous
 70
     0
  3
Solid line
 72
    65
 73
     0
 40
0.0
  0
LTYPE
  5
6C
330
5
100
AcDbSymbolTableRecord
100
AcDbLinetypeTableRecord
  2
CENTER
 70
     0
  3
____ _ ____ _ ____ _ ____ _ ____ _ ____ _ ____ 
 72
    65
 73
     4
 40
2.0
 49
1.25
 74
     0
 49
-0.25
 74
     0
 49
0.25
 74
     0
 49
-0.25
 74
     0
  0
LTYPE
  5
6D
330
5
100
AcDbSymbolTableRecord
100
AcDbLinetypeTableRecord
  2
HIDDEN
 70
     0
  3
__ __ __ __ __ __ __ __ __ __ __ __ __ __ __ __
 72
    65
 73
     2
 40
0.375
 49
0.25
 74
     0
 49
-0.125
 74
     0
  0
ENDTAB
  0
TABLE
  2
LAYER
  5
2
330
0
100
AcDbSymbolTable
 70
    16
  0
LAYER
  5
10
330
2
100
AcDbSymbolTableRecord
100
AcDbLayerTableRecord
  2
0
 70
     0
 62
     7
  6
Continuous
370
    -3
390
F
  0
LAYER
  5
6E
330
2
100
AcDbSymbolTableRecord
100
AcDbLayerTableRecord
  2
DIMENSIONS
 70
     0
 62
   -40
  6
Continuous
370
    -3
390
F
  0
LAYER
  5
6F
330
2
100
AcDbSymbolTableRecord
100
AcDbLayerTableRecord
  2
WAVE_GENERATOR
 70
     0
 62
   212
  6
Continuous
370
    -3
390
F
  0
LAYER
  5
70
330
2
100
AcDbSymbolTableRecord
100
AcDbLayerTableRecord
  2
FORMAT
 70
     0
 62
   254
  6
Continuous
370
    -3
390
F
  0
LAYER
  5
71
330
2
100
AcDbSymbolTableRecord
100
AcDbLayerTableRecord
  2
LINE_CENTER
 70
     0
 62
    20
  6
CENTER
370
    -3
390
F
  0
LAYER
  5
72
330
2
100
AcDbSymbolTableRecord
100
AcDbLayerTableRecord
  2
BEARING_WAVE_GEN
 70
     0
 62
   254
  6
Continuous
370
    -3
390
F
  0
LAYER
  5
73
330
2
100
AcDbSymbolTableRecord
100
AcDbLayerTableRecord
  2
LINE_HIDDEN
 70
     0
 62
   122
  6
HIDDEN
370
    -3
390
F
  0
LAYER
  5
74
330
2
100
AcDbSymbolTableRecord
100
AcDbLayerTableRecord
  2
RETAINER_BEARING
 70
     0
 62
   170
  6
Continuous
370
    -3
390
F
  0
LAYER
  5
75
330
2
100
AcDbSymbolTableRecord
100
AcDbLayerTableRecord
  2
SEPARATOR_BEARING
 70
     0
 62
   163
  6
Continuous
370
    -3
390
F
  0
LAYER
  5
76
330
2
100
AcDbSymbolTableRecord
100
AcDbLayerTableRecord
  2
SPACERS_PANCAKE
 70
     0
 62
   105
  6
Continuous
370
    -3
390
F
  0
LAYER
  5
77
330
2
100
AcDbSymbolTableRecord
100
AcDbLayerTableRecord
  2
SPLINE_DYNAMIC
 70
     0
 62
   100
  6
Continuous
370
    -3
390
F
  0
LAYER
  5
78
330
2
100
AcDbSymbolTableRecord
100
AcDbLayerTableRecord
  2
SPLINE_FLEX
 70
     0
 62
    50
  6
Continuous
370
    -3
390
F
  0
LAYER
  5
79
330
2
100
AcDbSymbolTableRecord
100
AcDbLayerTableRecord
  2
SPLINE_STATIC
 70
     0
 62
   150
  6
Continuous
370
    -3
390
F
  0
LAYER
  5
7A
330
2
100
AcDbSymbolTableRecord
100
AcDbLayerTableRecord
  2
WEAR_WASHER
 70
     0
 62
   243
  6
Continuous
370
    -3
390
F
  0
LAYER
  5
549
330
2
100
AcDbSymbolTableRecord
100
AcDbLayerTableRecord
  2
Defpoints
 70
     0
 62
     7
  6
Continuous
290
     0
370
    -3
390
F
  0
LAYER
  5
5B9
330
2
100
AcDbSymbolTableRecord
100
AcDbLayerTableRecord
  2
LAYER_1
 70
     0
 62
     5
  6
Continuous
370
    -3
390
F
  0
ENDTAB
  0
TABLE
  2
STYLE
  5
3
330
0
100
AcDbSymbolTable
 70
     2
  0
STYLE
  5
11
330
3
100
AcDbSymbolTableRecord
100
AcDbTextStyleTableRecord
  2
Standard
 70
     0
 40
0.0
 41
1.0
 50
0.0
 71
     0
 42
0.5
  3
txt
  4

  0
STYLE
  5
7B
330
3
100
AcDbSymbolTableRecord
100
AcDbTextStyleTableRecord
  2
ROMANS
 70
     0
 40
0.0
 41
1.0
 50
0.0
 71
     0
 42
0.15
  3
ROMANS
  4

  0
ENDTAB
  0
TABLE
  2
VIEW
  5
6
330
0
100
AcDbSymbolTable
 70
     0
  0
ENDTAB
  0
TABLE
  2
UCS
  5
7
330
0
100
AcDbSymbolTable
 70
     0
  0
ENDTAB
  0
TABLE
  2
APPID
  5
9
330
0
100
AcDbSymbolTable
 70
     1
  0
APPID
  5
12
330
9
100
AcDbSymbolTableRecord
100
AcDbRegAppTableRecord
  2
ACAD
 70
     0
  0
ENDTAB
  0
TABLE
  2
DIMSTYLE
  5
A
330
0
100
AcDbSymbolTable
 70
     2
100
AcDbDimStyleTable
 71
     0
  0
DIMSTYLE
105
27
330
A
100
AcDbSymbolTableRecord
100
AcDbDimStyleTableRecord
  2
Standard
 70
     0
340
11
  0
DIMSTYLE
105
7C
330
A
100
AcDbSymbolTableRecord
100
AcDbDimStyleTableRecord
  2
ENG_METRIC
 70
     0
 40
0.5
 43
0.5
 44
0.09
 78
     1
140
0.156
141
0.0
144
25.4
146
0.6666666666
176
   256
177
   256
178
   256
271
     0
272
     0
284
     1
288
     1
289
     2
340
7B
371
    -1
372
    -1
  0
ENDTAB
  0
TABLE
  2
BLOCK_RECORD
  5
1
330
0
100
AcDbSymbolTable
 70
    23
  0
BLOCK_RECORD
  5
1F
330
1
100
AcDbSymbolTableRecord
100
AcDbBlockTableRecord
  2
*Model_Space
340
22
  0
BLOCK_RECORD
  5
1B
330
1
100
AcDbSymbolTableRecord
100
AcDbBlockTableRecord
  2
*Paper_Space
340
1E
  0
BLOCK_RECORD
  5
23
330
1
100
AcDbSymbolTableRecord
100
AcDbBlockTableRecord
  2
*Paper_Space0
340
26
  0
BLOCK_RECORD
  5
2B
330
1
100
AcDbSymbolTableRecord
100
AcDbBlockTableRecord
  2
BEARING WG 20 1423134-10
340
0
102
{BLKREFS
331
141
331
1B4
331
388
331
3FB
102
}
  0
BLOCK_RECORD
  5
540
330
1
100
AcDbSymbolTableRecord
100
AcDbBlockTableRecord
  2
NTC
340
0
310
2800000020000000200000000100080000000000000400000000000000000000000000000000000000000000000080000080000000808000800000008000800080800000C0C0C000C0DCC000F0CAA6000020400000206000002080000020A0000020C0000020E00000400000004020000040400000406000004080000040A0
310
000040C0000040E00000600000006020000060400000606000006080000060A0000060C0000060E00000800000008020000080400000806000008080000080A0000080C0000080E00000A0000000A0200000A0400000A0600000A0800000A0A00000A0C00000A0E00000C0000000C0200000C0400000C0600000C0800000C0
310
A00000C0C00000C0E00000E0000000E0200000E0400000E0600000E0800000E0A00000E0C00000E0E00040000000400020004000400040006000400080004000A0004000C0004000E00040200000402020004020400040206000402080004020A0004020C0004020E000404000004040200040404000404060004040800040
310
40A0004040C0004040E00040600000406020004060400040606000406080004060A0004060C0004060E00040800000408020004080400040806000408080004080A0004080C0004080E00040A0000040A0200040A0400040A0600040A0800040A0A00040A0C00040A0E00040C0000040C0200040C0400040C0600040C08000
310
40C0A00040C0C00040C0E00040E0000040E0200040E0400040E0600040E0800040E0A00040E0C00040E0E00080000000800020008000400080006000800080008000A0008000C0008000E00080200000802020008020400080206000802080008020A0008020C0008020E00080400000804020008040400080406000804080
310
008040A0008040C0008040E00080600000806020008060400080606000806080008060A0008060C0008060E00080800000808020008080400080806000808080008080A0008080C0008080E00080A0000080A0200080A0400080A0600080A0800080A0A00080A0C00080A0E00080C0000080C0200080C0400080C0600080C0
310
800080C0A00080C0C00080C0E00080E0000080E0200080E0400080E0600080E0800080E0A00080E0C00080E0E000C0000000C0002000C0004000C0006000C0008000C000A000C000C000C000E000C0200000C0202000C0204000C0206000C0208000C020A000C020C000C020E000C0400000C0402000C0404000C0406000C0
310
408000C040A000C040C000C040E000C0600000C0602000C0604000C0606000C0608000C060A000C060C000C060E000C0800000C0802000C0804000C0806000C0808000C080A000C080C000C080E000C0A00000C0A02000C0A04000C0A06000C0A08000C0A0A000C0A0C000C0A0E000C0C00000C0C02000C0C04000C0C06000
310
C0C08000C0C0A000F0FBFF00A4A0A000808080000000FF0000FF000000FFFF00FF000000FF00FF00FFFF0000FFFFFF00FFFFFFFFFFFFFFFFFFFFFFFFFFFFFFFFFFFFFFFFFFFFFFFFFFFFFFFFFFFFFFFFFFFFFFFFFFFFFFFFFFFFFFFFFFFFFFFFFFFFFFFFFFFFFFFFFFFFFFFFFFFFFFFFFFFFFFFFFFFFFFFFFFFFFFFFFFFFFF
310
FFFFFFFFFFFFFFFFFFFFFFFFFFFFFFFFFFFFFFFFFFFFFFFFFFFFFFFFFFFFFFFFFFFFFFFFFFFFFFFFFFFFFFFFFFFFFFFFFFFFFFFFFFFFFFFFFFFFFFFFFFFFFFFFFFFFFFFFFFFFFFFFFFFFFFFFFFFFFFFFFFFFFFFFFFFFFFFFFFFFFFFFFFFFFFFFFFFFFFFFFFFFFFFFFFFFFFFFFFFFFFFFFFFFFFFFFFFFFFFFFFFFFFFFFFFFFF
310
FFFFFFFFFFFFFFFFFFFFFFFFFFFFFFFFFFFFFFFFFFFFFFFFFFFFFFFFFFFFFFFFFFFFFFFFFFFFFFFFFFFFFFFFFFFFFFFFFFFFFFFFFFFFFFFFFFFFFFFFFFFFFFFFFFFFFFFFFFFFFFFFFFFFFFFFFFFFFFFFFFFFFFFFFFFFFFFFFFFFFFFFFFFFFFFFFFFFFFFFFFFFFFFFFFFFFFFFFFFFFFFFFFFFFFFFFFFFFFFFFFFFFFFFFFFFFF
310
FFFFFFFFFFFFFFFFFFFFFFFFFFFFFFFFFFFFFFFF000000000000000000000000000000000000000000000000000000000000FFFF00FF0000000000000000FFFFFFFFFFFFFFFFFFFFFFFFFFFFFFFFFFFFFF00FFFF00FF0000000000000000FFFFFFFFFFFFFFFFFFFFFFFFFFFFFFFFFFFFFF00FFFF00FF000000000000000000
310
00000000000000000000000000FFFFFFFFFF00FFFF00FF0000000000000000000000000000000000000000000000000000FF00FFFF00FF0000000000000000000000000000000000000000000000000000FF00FFFF00FF0000000000000000000000000000000000000000000000000000FF00FFFF00FF0000000000000000
310
00000000000000000000000000000000FFFFFF00FFFF00FF0000000000FFFFFFFFFFFFFFFFFFFFFFFFFFFFFFFFFFFFFFFFFFFF00FFFF000000000000000000000000000000000000000000000000000000000000FFFFFFFFFFFFFFFFFFFFFFFFFFFFFFFFFFFFFFFFFFFFFFFFFFFFFFFFFFFFFFFFFFFFFFFFFFFFFFFFFFFFFF
310
FFFFFFFFFFFFFFFFFFFFFFFFFFFFFFFFFFFFFFFFFFFFFFFFFFFFFFFFFFFFFFFFFFFFFFFFFFFFFFFFFFFFFFFFFFFFFFFFFFFFFFFFFFFFFFFFFFFFFFFFFFFFFFFFFFFFFFFFFFFFFFFFFFFFFFFFFFFFFFFFFFFFFFFFFFFFFFFFFFFFFFFFFFFFFFFFFFFFFFFFFFFFFFFFFFFFFFFFFFFFFFFFFFFFFFFFFFFFFFFFFFFFFFFFFFFFFF
310
FFFFFFFFFFFFFFFFFFFFFFFFFFFFFFFFFFFFFFFFFFFFFFFFFFFFFFFFFFFFFFFFFFFFFFFFFFFFFFFFFFFFFFFFFFFFFFFFFFFFFFFFFFFFFFFFFFFFFFFFFFFFFFFFFFFFFFFFFFFFFFFFFFFFFFFFFFFFFFFFFFFFFFFFFFFFFFFFFFFFFFFFFFFFFFFFFFFFFFFFFFFFFFFFFFFFFFFFFFFFFFFFFFFFFFFFFFFFFFFFFFFFFFFFFFFFFF
310
FFFFFFFFFFFFFFFFFFFFFFFFFFFFFFFFFFFFFFFFFFFFFFFFFFFFFFFFFFFFFFFFFFFFFFFFFFFFFFFFFFFFFFFFFFFFFFFFFFFFFFFFFFFFFFFF
102
{BLKREFS
331
546
102
}
  0
BLOCK_RECORD
  5
545
330
1
100
AcDbSymbolTableRecord
100
AcDbBlockTableRecord
  2
Notice
340
0
310
2800000020000000200000000100080000000000000400000000000000000000000000000000000000000000000080000080000000808000800000008000800080800000C0C0C000C0DCC000F0CAA6000020400000206000002080000020A0000020C0000020E00000400000004020000040400000406000004080000040A0
310
000040C0000040E00000600000006020000060400000606000006080000060A0000060C0000060E00000800000008020000080400000806000008080000080A0000080C0000080E00000A0000000A0200000A0400000A0600000A0800000A0A00000A0C00000A0E00000C0000000C0200000C0400000C0600000C0800000C0
310
A00000C0C00000C0E00000E0000000E0200000E0400000E0600000E0800000E0A00000E0C00000E0E00040000000400020004000400040006000400080004000A0004000C0004000E00040200000402020004020400040206000402080004020A0004020C0004020E000404000004040200040404000404060004040800040
310
40A0004040C0004040E00040600000406020004060400040606000406080004060A0004060C0004060E00040800000408020004080400040806000408080004080A0004080C0004080E00040A0000040A0200040A0400040A0600040A0800040A0A00040A0C00040A0E00040C0000040C0200040C0400040C0600040C08000
310
40C0A00040C0C00040C0E00040E0000040E0200040E0400040E0600040E0800040E0A00040E0C00040E0E00080000000800020008000400080006000800080008000A0008000C0008000E00080200000802020008020400080206000802080008020A0008020C0008020E00080400000804020008040400080406000804080
310
008040A0008040C0008040E00080600000806020008060400080606000806080008060A0008060C0008060E00080800000808020008080400080806000808080008080A0008080C0008080E00080A0000080A0200080A0400080A0600080A0800080A0A00080A0C00080A0E00080C0000080C0200080C0400080C0600080C0
310
800080C0A00080C0C00080C0E00080E0000080E0200080E0400080E0600080E0800080E0A00080E0C00080E0E000C0000000C0002000C0004000C0006000C0008000C000A000C000C000C000E000C0200000C0202000C0204000C0206000C0208000C020A000C020C000C020E000C0400000C0402000C0404000C0406000C0
310
408000C040A000C040C000C040E000C0600000C0602000C0604000C0606000C0608000C060A000C060C000C060E000C0800000C0802000C0804000C0806000C0808000C080A000C080C000C080E000C0A00000C0A02000C0A04000C0A06000C0A08000C0A0A000C0A0C000C0A0E000C0C00000C0C02000C0C04000C0C06000
310
C0C08000C0C0A000F0FBFF00A4A0A000808080000000FF0000FF000000FFFF00FF000000FF00FF00FFFF0000FFFFFF00FFFFFFFFFFFFFFFFFFFFFFFFFFFFFFFFFFFFFFFFFFFFFFFFFFFFFFFFFFFFFFFFFFFFFFFFFFFFFFFFFFFFFFFFFFFFFFFFFFFFFFFFFFFFFFFFFFFFFFFFFFFFFFFFFFFFFFFFFFFFFFFFFFFFFFFFFFFFFF
310
FFFFFFFFFFFFFFFFFFFFFFFFFFFFFFFFFFFFFFFFFFFFFFFFFFFFFFFFFFFFFFFFFFFFFFFFFFFFFFFFFFFFFFFFFFFFFFFFFFFFFFFFFFFFFFFFFFFFFFFFFFFFFFFFFFFFFFFFFFFFFFFFFFFFFFFFFFFFFFFFFFFFFFFFFFFFFFFFFFFFFFFFFFFFFFFFFFFFFFFFFFFFFFFFFFFFFFFFFFFFFFFFFFFFFFFFFFFFFFFFFFFFFFFFFFFFFF
310
FFFFFFFFFFFFFFFFFFFFFFFFFFFFFFFFFFFFFFFFFFFFFFFFFFFFFFFFFFFFFFFFFFFFFFFFFFFFFFFFFFFFFFFFFFFFFFFFFFFFFFFFFFFFFFFFFFFFFFFFFFFFFFFFFFFFFFFFFFFFFFFFFFFFFFFFFFFFFFFFFFFFFFFFFFFFFFFFFFFFFFFFFFFFFFFFFFFFFFFFFFFFFFFFFFFFFFFFFFFFFFFFFFFFFFFFFFFFFFFFFFFFFFFFFFFFFF
310
FFFFFFFFFFFFFFFFFFFFFFFFFFFFFFFFFFFFFFFF000000000000000000000000000000000000000000000000000000000000FFFF00FF0000000000000000FFFFFFFFFFFFFFFFFFFFFFFFFFFFFFFFFFFFFF00FFFF00FF0000000000000000FFFFFFFFFFFFFFFFFFFFFFFFFFFFFFFFFFFFFF00FFFF00FF000000000000000000
310
00000000000000000000000000FFFFFFFFFF00FFFF00FF0000000000000000000000000000000000000000000000000000FF00FFFF00FF0000000000000000000000000000000000000000000000000000FF00FFFF00FF0000000000000000000000000000000000000000000000000000FF00FFFF00FF0000000000000000
310
00000000000000000000000000000000FFFFFF00FFFF00FF000000000000FFFFFFFFFFFFFFFFFFFFFFFFFFFFFFFFFFFFFFFFFF00FFFF000000000000000000000000000000000000000000000000000000000000FFFFFFFFFFFFFFFFFFFFFFFFFFFFFFFFFFFFFFFFFFFFFFFFFFFFFFFFFFFFFFFFFFFFFFFFFFFFFFFFFFFFFF
310
FFFFFFFFFFFFFFFFFFFFFFFFFFFFFFFFFFFFFFFFFFFFFFFFFFFFFFFFFFFFFFFFFFFFFFFFFFFFFFFFFFFFFFFFFFFFFFFFFFFFFFFFFFFFFFFFFFFFFFFFFFFFFFFFFFFFFFFFFFFFFFFFFFFFFFFFFFFFFFFFFFFFFFFFFFFFFFFFFFFFFFFFFFFFFFFFFFFFFFFFFFFFFFFFFFFFFFFFFFFFFFFFFFFFFFFFFFFFFFFFFFFFFFFFFFFFFF
310
FFFFFFFFFFFFFFFFFFFFFFFFFFFFFFFFFFFFFFFFFFFFFFFFFFFFFFFFFFFFFFFFFFFFFFFFFFFFFFFFFFFFFFFFFFFFFFFFFFFFFFFFFFFFFFFFFFFFFFFFFFFFFFFFFFFFFFFFFFFFFFFFFFFFFFFFFFFFFFFFFFFFFFFFFFFFFFFFFFFFFFFFFFFFFFFFFFFFFFFFFFFFFFFFFFFFFFFFFFFFFFFFFFFFFFFFFFFFFFFFFFFFFFFFFFFFFF
310
FFFFFFFFFFFFFFFFFFFFFFFFFFFFFFFFFFFFFFFFFFFFFFFFFFFFFFFFFFFFFFFFFFFFFFFFFFFFFFFFFFFFFFFFFFFFFFFFFFFFFFFFFFFFFFFF
102
{BLKREFS
331
54B
331
550
102
}
  0
BLOCK_RECORD
  5
551
330
1
100
AcDbSymbolTableRecord
100
AcDbBlockTableRecord
  2
AI9-BLK14
340
0
310
2800000020000000200000000100080000000000000400000000000000000000000000000000000000000000000080000080000000808000800000008000800080800000C0C0C000C0DCC000F0CAA6000020400000206000002080000020A0000020C0000020E00000400000004020000040400000406000004080000040A0
310
000040C0000040E00000600000006020000060400000606000006080000060A0000060C0000060E00000800000008020000080400000806000008080000080A0000080C0000080E00000A0000000A0200000A0400000A0600000A0800000A0A00000A0C00000A0E00000C0000000C0200000C0400000C0600000C0800000C0
310
A00000C0C00000C0E00000E0000000E0200000E0400000E0600000E0800000E0A00000E0C00000E0E00040000000400020004000400040006000400080004000A0004000C0004000E00040200000402020004020400040206000402080004020A0004020C0004020E000404000004040200040404000404060004040800040
310
40A0004040C0004040E00040600000406020004060400040606000406080004060A0004060C0004060E00040800000408020004080400040806000408080004080A0004080C0004080E00040A0000040A0200040A0400040A0600040A0800040A0A00040A0C00040A0E00040C0000040C0200040C0400040C0600040C08000
310
40C0A00040C0C00040C0E00040E0000040E0200040E0400040E0600040E0800040E0A00040E0C00040E0E00080000000800020008000400080006000800080008000A0008000C0008000E00080200000802020008020400080206000802080008020A0008020C0008020E00080400000804020008040400080406000804080
310
008040A0008040C0008040E00080600000806020008060400080606000806080008060A0008060C0008060E00080800000808020008080400080806000808080008080A0008080C0008080E00080A0000080A0200080A0400080A0600080A0800080A0A00080A0C00080A0E00080C0000080C0200080C0400080C0600080C0
310
800080C0A00080C0C00080C0E00080E0000080E0200080E0400080E0600080E0800080E0A00080E0C00080E0E000C0000000C0002000C0004000C0006000C0008000C000A000C000C000C000E000C0200000C0202000C0204000C0206000C0208000C020A000C020C000C020E000C0400000C0402000C0404000C0406000C0
310
408000C040A000C040C000C040E000C0600000C0602000C0604000C0606000C0608000C060A000C060C000C060E000C0800000C0802000C0804000C0806000C0808000C080A000C080C000C080E000C0A00000C0A02000C0A04000C0A06000C0A08000C0A0A000C0A0C000C0A0E000C0C00000C0C02000C0C04000C0C06000
310
C0C08000C0C0A000F0FBFF00A4A0A000808080000000FF0000FF000000FFFF00FF000000FF00FF00FFFF0000FFFFFF00FF00FFFFFFFF00FFFFFFFFFFFFFFFFFFFFFFFFFFFFFFFFFFFFFFFFFFFFFFFFFFFF00FFFFFFFF00FFFFFFFFFFFFFFFFFFFFFFFFFFFFFFFFFFFFFFFFFFFFFFFFFFFF00FFFFFFFF00FFFFFFFFFFFFFFFF
310
FFFFFFFFFFFFFFFFFFFFFFFFFFFFFFFFFFFF00FFFFFFFF00FFFFFFFFFFFFFFFFFFFFFFFFFFFFFFFFFFFFFFFFFFFFFFFFFFFF00FFFFFFFF00FFFFFFFFFFFFFFFFFFFFFFFFFFFFFFFFFFFFFFFFFFFFFFFFFFFF00FFFFFFFF00FFFFFFFFFFFFFFFFFFFFFFFFFFFFFFFFFFFFFFFFFFFFFFFFFFFF00FFFFFFFF00FFFFFFFFFFFFFF
310
FFFFFFFFFFFFFFFFFFFFFFFFFFFFFFFFFFFFFF00FFFFFFFF00FFFFFFFFFFFFFFFFFFFFFFFFFFFFFFFFFFFFFFFFFFFFFFFFFFFF00FFFFFFFF00FFFFFFFFFFFFFFFFFFFFFFFFFFFFFFFFFFFFFFFFFFFFFFFFFFFF00FFFFFFFF00FFFFFFFFFFFFFFFFFFFFFFFFFFFFFFFFFFFFFFFFFFFFFFFFFFFF00FFFFFFFF00FFFFFFFFFFFF
310
FFFFFFFFFFFFFFFFFFFFFFFFFFFFFFFFFFFFFFFF00FFFFFFFF00FFFFFFFFFFFFFFFFFFFFFFFFFFFFFFFFFFFFFFFFFFFFFFFFFFFF00FFFFFFFF00FFFFFFFFFFFFFFFFFFFFFFFFFFFFFFFFFFFFFFFFFFFFFFFFFFFF00FFFFFFFF0000000000000000000000000000000000000000000000000000FF00FFFFFFFFFFFFFFFFFFFF
310
FFFFFFFFFFFFFFFFFFFFFFFFFFFFFFFFFFFFFFFFFF00FFFFFFFFFFFFFFFFFFFFFFFFFFFFFFFFFFFFFFFFFFFFFFFFFFFFFFFFFFFFFF00FFFFFFFFFFFFFFFFFFFFFFFFFFFFFFFFFFFFFFFFFFFFFFFFFFFFFFFFFFFFFF00FFFFFFFFFFFFFFFFFFFFFFFFFFFFFFFFFFFFFFFFFFFFFFFFFFFFFFFFFF00FF00000000000000000000
310
0000000000000000000000000000000000000000FFFFFFFFFFFFFFFFFFFFFFFFFFFFFFFFFFFFFFFFFFFFFFFFFFFFFFFFFFFFFFFFFFFFFFFFFFFFFFFFFFFFFFFFFFFFFFFFFFFFFFFFFFFFFFFFFFFFFFFFFFFFFFFFFFFFFFFFFFFFFFFFFFFFFFFFFFFFFFFFFFFFFFFFFFFFFFFFFFFFFFFFFFFFFFFFFFFFFFFFFFFFFFFFFFFFFF
310
FFFFFFFFFFFFFFFFFFFFFFFFFFFFFFFFFFFFFFFFFFFFFFFFFFFFFFFFFFFFFFFFFFFFFFFFFFFFFFFFFFFFFFFFFFFFFFFFFFFFFFFFFFFFFFFFFFFFFFFFFFFFFFFFFFFFFFFFFFFFFFFFFFFFFFFFFFFFFFFFFFFFFFFFFFFFFFFFFFFFFFFFFFFFFFFFFFFFFFFFFFFFFFFFFFFFFFFFFFFFFFFFFFFFFFFFFFFFFFFFFFFFFFFFFFFFFF
310
FFFFFFFFFFFFFFFFFFFFFFFFFFFFFFFFFFFFFFFFFFFFFFFFFFFFFFFFFFFFFFFFFFFFFFFFFFFFFFFFFFFFFFFFFFFFFFFFFFFFFFFFFFFFFFFFFFFFFFFFFFFFFFFFFFFFFFFFFFFFFFFFFFFFFFFFFFFFFFFFFFFFFFFFFFFFFFFFFFFFFFFFFFFFFFFFFFFFFFFFFFFFFFFFFFFFFFFFFFFFFFFFFFFFFFFFFFFFFFFFFFFFFFFFFFFFFF
310
FFFFFFFFFFFFFFFFFFFFFFFFFFFFFFFFFFFFFFFFFFFFFFFFFFFFFFFFFFFFFFFFFFFFFFFFFFFFFFFFFFFFFFFFFFFFFFFFFFFFFFFFFFFFFFFF
102
{BLKREFS
331
592
102
}
  0
BLOCK_RECORD
  5
556
330
1
100
AcDbSymbolTableRecord
100
AcDbBlockTableRecord
  2
AI9-BLK13
340
0
310
2800000020000000200000000100080000000000000400000000000000000000000000000000000000000000000080000080000000808000800000008000800080800000C0C0C000C0DCC000F0CAA6000020400000206000002080000020A0000020C0000020E00000400000004020000040400000406000004080000040A0
310
000040C0000040E00000600000006020000060400000606000006080000060A0000060C0000060E00000800000008020000080400000806000008080000080A0000080C0000080E00000A0000000A0200000A0400000A0600000A0800000A0A00000A0C00000A0E00000C0000000C0200000C0400000C0600000C0800000C0
310
A00000C0C00000C0E00000E0000000E0200000E0400000E0600000E0800000E0A00000E0C00000E0E00040000000400020004000400040006000400080004000A0004000C0004000E00040200000402020004020400040206000402080004020A0004020C0004020E000404000004040200040404000404060004040800040
310
40A0004040C0004040E00040600000406020004060400040606000406080004060A0004060C0004060E00040800000408020004080400040806000408080004080A0004080C0004080E00040A0000040A0200040A0400040A0600040A0800040A0A00040A0C00040A0E00040C0000040C0200040C0400040C0600040C08000
310
40C0A00040C0C00040C0E00040E0000040E0200040E0400040E0600040E0800040E0A00040E0C00040E0E00080000000800020008000400080006000800080008000A0008000C0008000E00080200000802020008020400080206000802080008020A0008020C0008020E00080400000804020008040400080406000804080
310
008040A0008040C0008040E00080600000806020008060400080606000806080008060A0008060C0008060E00080800000808020008080400080806000808080008080A0008080C0008080E00080A0000080A0200080A0400080A0600080A0800080A0A00080A0C00080A0E00080C0000080C0200080C0400080C0600080C0
310
800080C0A00080C0C00080C0E00080E0000080E0200080E0400080E0600080E0800080E0A00080E0C00080E0E000C0000000C0002000C0004000C0006000C0008000C000A000C000C000C000E000C0200000C0202000C0204000C0206000C0208000C020A000C020C000C020E000C0400000C0402000C0404000C0406000C0
310
408000C040A000C040C000C040E000C0600000C0602000C0604000C0606000C0608000C060A000C060C000C060E000C0800000C0802000C0804000C0806000C0808000C080A000C080C000C080E000C0A00000C0A02000C0A04000C0A06000C0A08000C0A0A000C0A0C000C0A0E000C0C00000C0C02000C0C04000C0C06000
310
C0C08000C0C0A000F0FBFF00A4A0A000808080000000FF0000FF000000FFFF00FF000000FF00FF00FFFF0000FFFFFF00FFFFFFFFFFFFFFFFFFFFFFFFFFFFFFFFFFFFFFFFFFFFFFFFFFFFFFFFFFFFFFFFFFFFFFFFFFFFFFFFFFFFFF0000FFFFFFFFFFFF0000FFFFFFFFFFFFFFFFFFFFFFFFFFFFFFFFFFFFFFFFFFFF0000FFFF
310
FFFFFFFF0000FFFFFFFFFFFFFFFFFFFFFFFFFFFFFFFFFFFFFFFFFFFF0000FFFFFFFFFFFF0000FFFFFFFFFFFFFFFFFFFFFFFFFFFFFFFFFFFFFFFFFFFF0000FFFFFFFFFFFF0000FFFFFFFFFFFFFFFFFFFFFFFFFFFFFFFFFFFFFFFFFFFF0000FFFFFFFFFFFF0000FFFFFFFFFFFFFFFFFFFFFFFFFFFFFFFFFFFFFFFFFFFF0000FF
310
FFFFFFFFFF0000FFFFFFFFFFFFFFFFFFFFFFFFFFFFFFFFFFFFFFFFFFFF0000FFFFFFFFFFFF0000FFFFFFFFFFFFFFFFFFFFFFFFFFFFFFFFFFFFFFFFFFFF0000FFFFFFFFFFFF0000FFFFFFFFFFFFFFFFFFFFFFFFFFFFFFFFFFFFFFFFFFFF0000FFFFFFFFFFFF0000FFFFFFFFFFFFFFFFFFFFFFFFFFFFFFFFFFFFFFFFFFFF0000
310
FFFFFFFFFFFF0000FFFFFFFFFFFFFFFFFFFFFFFFFFFFFFFFFFFFFFFFFFFF0000FFFFFFFFFFFF0000FFFFFFFFFFFFFFFFFFFFFFFFFFFFFFFFFFFFFFFFFFFF0000FFFFFFFFFFFF0000FFFFFFFFFFFFFFFFFFFFFFFFFFFFFFFFFFFFFFFFFFFF0000FFFFFFFFFFFF0000FFFFFFFFFFFFFFFFFFFFFFFFFFFFFFFFFFFFFFFFFFFF00
310
00FFFFFFFFFFFF0000FFFFFFFFFFFFFFFFFFFFFFFFFFFFFFFFFFFFFFFFFFFF00000000000000000000FFFFFFFFFFFFFFFFFFFFFFFFFFFFFFFFFFFFFFFFFFFF00FFFFFFFFFFFFFFFF00FFFFFFFFFFFFFFFFFFFFFFFFFFFFFFFFFFFFFFFFFFFF00FFFFFFFFFFFFFFFF00FFFFFFFFFFFFFFFFFFFFFFFFFFFFFFFFFFFFFFFFFFFF
310
00000000000000000000FFFFFFFFFFFFFFFFFFFFFFFFFFFFFFFFFFFFFFFFFFFF0000FFFFFFFFFFFF0000FFFFFFFFFFFFFFFFFFFFFFFFFFFFFFFFFFFFFFFFFFFF0000FFFFFFFFFFFF0000FFFFFFFFFFFFFFFFFFFFFFFFFFFFFFFFFFFFFFFFFFFF0000FFFFFFFFFFFF0000FFFFFFFFFFFFFFFFFFFFFFFFFFFFFFFFFFFFFFFFFF
310
FF0000FFFFFFFFFFFF0000FFFFFFFFFFFFFFFFFFFFFFFFFFFFFFFFFFFFFFFFFFFF0000FFFFFFFFFFFF0000FFFFFFFFFFFFFFFFFFFFFFFFFFFFFFFFFFFFFFFFFFFF0000FFFFFFFFFFFF0000FFFFFFFFFFFFFFFFFFFFFFFFFFFFFFFFFFFFFFFFFFFF0000FFFFFFFFFFFF0000FFFFFFFFFFFFFFFFFFFFFFFFFFFFFFFFFFFFFFFF
310
FFFF0000FFFFFFFFFFFF0000FFFFFFFFFFFFFFFFFFFFFFFFFFFFFFFFFFFFFFFFFFFF0000FFFFFFFFFFFF0000FFFFFFFFFFFFFFFFFFFFFFFFFFFFFFFFFFFFFFFFFFFF0000FFFFFFFFFFFF0000FFFFFFFFFFFFFFFFFFFFFFFFFFFFFFFFFFFFFFFFFFFF0000FFFFFFFFFFFF0000FFFFFFFFFFFFFFFFFFFFFFFFFFFFFFFFFFFFFF
310
FFFFFF0000FFFFFFFFFFFF0000FFFFFFFFFFFFFFFFFFFFFFFFFFFFFFFFFFFFFFFFFFFFFFFFFFFFFFFFFFFFFFFFFFFFFFFFFFFFFFFFFFFFFF
102
{BLKREFS
331
593
102
}
  0
BLOCK_RECORD
  5
55B
330
1
100
AcDbSymbolTableRecord
100
AcDbBlockTableRecord
  2
AI9-BLK11
340
0
310
2800000020000000200000000100080000000000000400000000000000000000000000000000000000000000000080000080000000808000800000008000800080800000C0C0C000C0DCC000F0CAA6000020400000206000002080000020A0000020C0000020E00000400000004020000040400000406000004080000040A0
310
000040C0000040E00000600000006020000060400000606000006080000060A0000060C0000060E00000800000008020000080400000806000008080000080A0000080C0000080E00000A0000000A0200000A0400000A0600000A0800000A0A00000A0C00000A0E00000C0000000C0200000C0400000C0600000C0800000C0
310
A00000C0C00000C0E00000E0000000E0200000E0400000E0600000E0800000E0A00000E0C00000E0E00040000000400020004000400040006000400080004000A0004000C0004000E00040200000402020004020400040206000402080004020A0004020C0004020E000404000004040200040404000404060004040800040
310
40A0004040C0004040E00040600000406020004060400040606000406080004060A0004060C0004060E00040800000408020004080400040806000408080004080A0004080C0004080E00040A0000040A0200040A0400040A0600040A0800040A0A00040A0C00040A0E00040C0000040C0200040C0400040C0600040C08000
310
40C0A00040C0C00040C0E00040E0000040E0200040E0400040E0600040E0800040E0A00040E0C00040E0E00080000000800020008000400080006000800080008000A0008000C0008000E00080200000802020008020400080206000802080008020A0008020C0008020E00080400000804020008040400080406000804080
310
008040A0008040C0008040E00080600000806020008060400080606000806080008060A0008060C0008060E00080800000808020008080400080806000808080008080A0008080C0008080E00080A0000080A0200080A0400080A0600080A0800080A0A00080A0C00080A0E00080C0000080C0200080C0400080C0600080C0
310
800080C0A00080C0C00080C0E00080E0000080E0200080E0400080E0600080E0800080E0A00080E0C00080E0E000C0000000C0002000C0004000C0006000C0008000C000A000C000C000C000E000C0200000C0202000C0204000C0206000C0208000C020A000C020C000C020E000C0400000C0402000C0404000C0406000C0
310
408000C040A000C040C000C040E000C0600000C0602000C0604000C0606000C0608000C060A000C060C000C060E000C0800000C0802000C0804000C0806000C0808000C080A000C080C000C080E000C0A00000C0A02000C0A04000C0A06000C0A08000C0A0A000C0A0C000C0A0E000C0C00000C0C02000C0C04000C0C06000
310
C0C08000C0C0A000F0FBFF00A4A0A000808080000000FF0000FF000000FFFF00FF000000FF00FF00FFFF0000FFFFFF00FFFFFFFFFFFFFFFFFFFFFFFFFFFFFFFFFFFFFFFFFFFFFFFFFFFFFFFFFFFFFFFFFFFFFFFFFFFFFFFFFFFFFFFFFFFF00000000FFFFFFFFFFFFFFFFFFFFFF000000FFFFFFFFFFFFFFFFFFFFFFFFFFFF00
310
FFFF00FFFFFFFFFFFFFFFFFFFFFF00FFFFFFFFFFFFFFFFFFFFFFFFFFFFFFFF00FFFF00FFFFFFFFFFFFFFFFFFFFFF00FFFFFFFFFFFFFFFFFFFFFFFFFFFFFFFF00FFFF00FFFFFFFFFFFFFFFFFFFFFF00FFFFFFFFFFFFFFFFFFFFFFFFFFFFFFFF00FFFF00FFFFFFFFFFFFFFFFFFFFFF00FFFFFFFFFFFFFFFFFFFFFFFFFFFFFFFF
310
00FFFF00FFFFFFFFFFFFFFFFFFFFFF00FFFFFFFFFFFFFFFFFFFFFFFFFFFFFFFF00FFFF00FFFFFFFFFFFFFFFFFFFFFF00FFFFFFFFFFFFFFFFFFFFFFFFFFFFFFFF00FFFF00FFFFFFFFFFFFFFFFFFFFFF00FFFFFFFFFFFFFFFFFFFFFFFFFFFFFFFF00FFFF00FFFFFFFFFFFFFFFFFFFFFF00FFFFFFFFFFFFFFFFFFFFFFFFFFFFFF
310
FF00FFFF00FFFFFFFFFFFFFFFFFFFFFF00FFFFFFFFFFFFFFFFFFFFFFFFFFFFFFFF00FFFF00FFFFFFFFFFFFFFFFFFFFFF00FFFFFFFFFFFFFFFFFFFFFFFFFFFFFFFF00FFFF00FFFFFFFFFFFFFFFFFFFFFF00FFFFFFFFFFFFFFFFFFFFFFFFFFFFFFFF00FFFF00FFFFFFFFFFFFFFFFFFFFFF00FFFFFFFFFFFFFFFFFFFFFFFFFFFF
310
FFFF00FFFF00FFFFFFFFFFFFFFFFFFFFFF00FFFFFFFFFFFFFFFFFFFFFFFFFFFFFFFF00FFFF00FFFFFFFFFFFFFFFFFFFFFF00FFFFFFFFFFFFFFFFFFFFFFFFFFFFFFFF00FFFF00FFFFFFFFFFFFFFFFFFFFFF00FFFFFFFFFFFFFFFFFFFFFFFFFFFFFFFF00FFFF00FFFFFFFFFFFFFFFFFFFF00FFFFFFFFFFFFFFFFFFFFFFFFFFFF
310
FFFFFF00FFFF00FFFFFFFFFFFFFFFFFFFF00FFFFFFFFFFFFFFFFFFFFFFFFFFFFFFFFFF00FFFF00FFFFFFFFFFFFFFFFFFFF00FFFFFFFFFFFFFFFFFFFFFFFFFFFFFFFFFF00FFFF00FFFFFFFFFFFFFFFFFFFF00FFFFFFFFFFFFFFFFFFFFFFFFFFFFFFFFFF00FFFF00FFFFFFFFFFFFFFFFFFFF00FFFFFFFFFFFFFFFFFFFFFFFFFF
310
FFFFFFFF00FFFF00FFFFFFFFFFFFFFFFFF0000FFFF00FFFFFFFFFFFFFFFFFFFFFFFFFFFF00FFFF00FFFFFFFFFFFFFFFF0000FFFFFF00FFFFFFFFFFFFFFFFFFFFFFFFFFFF00FFFF00000000000000000000FFFFFFFF00FFFFFFFFFFFFFFFFFFFFFFFFFFFF00FFFFFFFFFFFFFFFFFFFFFFFFFFFFFF00FFFFFFFFFFFFFFFFFFFF
310
FFFFFFFFFF00FFFFFFFFFFFFFFFFFFFFFFFFFFFF00FFFFFFFFFFFFFFFFFFFFFFFFFFFFFFFF00FFFFFFFFFFFFFFFFFFFFFFFFFFFF00FFFFFFFFFFFFFFFFFFFFFFFFFFFFFFFF00FFFFFFFFFFFFFFFFFFFFFFFFFFFFFF00FFFFFFFFFFFFFFFFFFFFFFFFFFFFFF00FFFFFFFFFFFFFFFFFFFFFFFFFFFFFF00FFFFFFFFFFFFFFFFFF
310
FFFFFFFFFFFF00FFFF00000000000000000000FFFFFFFF00FFFFFFFFFFFFFFFFFFFFFFFFFFFF00FFFF00FFFFFFFFFFFFFFFFFF0000FFFF00
102
{BLKREFS
331
594
102
}
  0
BLOCK_RECORD
  5
560
330
1
100
AcDbSymbolTableRecord
100
AcDbBlockTableRecord
  2
AI9-BLK10
340
0
310
2800000020000000200000000100080000000000000400000000000000000000000000000000000000000000000080000080000000808000800000008000800080800000C0C0C000C0DCC000F0CAA6000020400000206000002080000020A0000020C0000020E00000400000004020000040400000406000004080000040A0
310
000040C0000040E00000600000006020000060400000606000006080000060A0000060C0000060E00000800000008020000080400000806000008080000080A0000080C0000080E00000A0000000A0200000A0400000A0600000A0800000A0A00000A0C00000A0E00000C0000000C0200000C0400000C0600000C0800000C0
310
A00000C0C00000C0E00000E0000000E0200000E0400000E0600000E0800000E0A00000E0C00000E0E00040000000400020004000400040006000400080004000A0004000C0004000E00040200000402020004020400040206000402080004020A0004020C0004020E000404000004040200040404000404060004040800040
310
40A0004040C0004040E00040600000406020004060400040606000406080004060A0004060C0004060E00040800000408020004080400040806000408080004080A0004080C0004080E00040A0000040A0200040A0400040A0600040A0800040A0A00040A0C00040A0E00040C0000040C0200040C0400040C0600040C08000
310
40C0A00040C0C00040C0E00040E0000040E0200040E0400040E0600040E0800040E0A00040E0C00040E0E00080000000800020008000400080006000800080008000A0008000C0008000E00080200000802020008020400080206000802080008020A0008020C0008020E00080400000804020008040400080406000804080
310
008040A0008040C0008040E00080600000806020008060400080606000806080008060A0008060C0008060E00080800000808020008080400080806000808080008080A0008080C0008080E00080A0000080A0200080A0400080A0600080A0800080A0A00080A0C00080A0E00080C0000080C0200080C0400080C0600080C0
310
800080C0A00080C0C00080C0E00080E0000080E0200080E0400080E0600080E0800080E0A00080E0C00080E0E000C0000000C0002000C0004000C0006000C0008000C000A000C000C000C000E000C0200000C0202000C0204000C0206000C0208000C020A000C020C000C020E000C0400000C0402000C0404000C0406000C0
310
408000C040A000C040C000C040E000C0600000C0602000C0604000C0606000C0608000C060A000C060C000C060E000C0800000C0802000C0804000C0806000C0808000C080A000C080C000C080E000C0A00000C0A02000C0A04000C0A06000C0A08000C0A0A000C0A0C000C0A0E000C0C00000C0C02000C0C04000C0C06000
310
C0C08000C0C0A000F0FBFF00A4A0A000808080000000FF0000FF000000FFFF00FF000000FF00FF00FFFF0000FFFFFF00FFFFFFFFFFFFFFFFFFFFFFFFFFFFFFFF00FFFFFFFFFFFFFFFFFFFFFFFF00FFFFFFFFFFFFFFFFFFFFFFFFFFFFFFFFFFFF00FFFFFFFFFFFFFFFFFFFFFF00FFFFFFFFFFFFFFFFFFFFFFFFFFFFFFFFFFFF
310
FF00FFFFFFFFFFFFFFFFFFFFFF00FFFFFFFFFFFFFFFFFFFFFFFFFFFFFFFFFFFFFF00FFFFFFFFFFFFFFFFFFFFFF00FFFFFFFFFFFFFFFFFFFFFFFFFFFFFFFFFFFFFF00FFFFFFFFFFFFFFFFFFFFFF00FFFFFFFFFFFFFFFFFFFFFFFFFFFFFFFFFFFFFF00FFFFFFFFFFFFFFFFFFFFFF00FFFFFFFFFFFFFFFFFFFFFFFFFFFFFFFFFF
310
FFFF00FFFFFFFFFFFFFFFFFFFFFF00FFFFFFFFFFFFFFFFFFFFFFFFFFFFFFFFFFFFFF00FFFFFFFFFFFFFFFFFFFF00FFFFFFFFFFFFFFFFFFFFFFFFFFFFFFFFFFFFFFFF00FFFFFFFFFFFFFFFFFFFF00FFFFFFFFFFFFFFFFFFFFFFFFFFFFFFFFFFFFFFFF00FFFFFFFFFFFFFFFFFFFF00FFFFFFFFFFFFFFFFFFFFFFFFFFFFFFFFFF
310
FFFFFF00FFFFFFFFFFFFFFFFFFFF00FFFFFFFFFFFFFFFFFFFFFFFFFFFFFFFFFFFFFFFF00FFFFFFFFFFFFFFFFFFFF00FFFFFFFFFFFFFFFFFFFFFFFFFFFFFFFFFFFFFFFF00FFFFFFFFFFFFFFFFFFFF00FFFFFFFFFFFFFFFFFFFFFFFFFFFFFFFFFFFFFFFF00FFFFFFFFFFFFFFFFFF00FFFFFFFFFFFFFFFFFFFFFFFFFFFFFFFFFF
310
FFFFFFFF00FFFFFFFFFFFFFFFFFF00FFFFFFFFFFFFFFFFFFFFFFFFFFFFFFFFFFFFFFFFFF00FFFFFFFFFFFFFFFFFF00FFFFFFFFFFFFFFFFFFFFFFFFFFFFFFFFFFFFFFFFFF0000000000000000000000FFFFFFFFFFFFFFFFFFFFFFFFFFFFFFFFFFFFFFFFFFFFFFFFFFFFFFFFFFFFFFFFFFFFFFFFFFFFFFFFFFFFFFFFFFFFFFFF
310
FFFFFFFFFFFFFFFFFFFFFFFFFFFFFFFFFFFFFFFFFFFFFFFFFFFFFFFFFFFFFFFFFFFFFFFFFFFFFFFFFFFFFFFFFFFFFFFFFFFFFFFFFFFFFFFFFFFFFFFFFFFFFFFFFFFFFFFFFFFFFFFFFFFFFFFFFFFFFFFFFFFFFFFFFFFFFFFFFFFFFFFFFFFFFFFFFFFFFFFFFFFFFFFFFFFFFFFFFFFFFFFFFFFFFFFFFFFFFFFFFFFFFFFFFFFFFF
310
FFFFFFFFFFFFFFFFFFFFFFFFFFFFFFFFFFFFFFFFFFFFFFFFFFFFFFFFFFFFFFFFFFFFFFFFFFFFFFFFFFFFFFFFFFFFFFFFFFFFFFFFFFFFFFFFFFFFFFFFFFFFFFFFFFFFFFFFFFFFFFFFFFFFFFFFFFFFFFFFFFFFFFFFFFFFFFFFFFFFFFFFFFFFFFFFFFFFFFFFFFFFFFFFFFFFFFFFFFFFFFFFFFFFFFFFFFFFFFFFFFFFFFFFFFFFFF
310
FFFFFFFFFFFFFFFFFFFFFFFFFFFFFFFFFFFFFFFFFFFFFFFFFFFFFFFFFFFFFFFFFFFFFFFFFFFFFFFFFFFFFFFFFFFFFFFFFFFFFFFFFFFFFFFFFFFFFFFFFFFFFFFFFFFFFFFFFFFFFFFFFFFFFFFFFFFFFFFFFFFFFFFFFFFFFFFFFFFFFFFFFFFFFFFFFFFFFFFFFFFFFFFFFFFFFFFFFFFFFFFFFFFFFFFFFFFFFFFFFFFFFFFFFFFFFF
310
FFFFFFFFFFFFFFFFFFFFFFFFFFFFFFFFFFFFFFFFFFFFFFFFFFFFFFFFFFFFFFFFFFFFFFFFFFFFFFFFFFFFFFFFFFFFFFFFFFFFFFFFFFFFFFFF
102
{BLKREFS
331
595
102
}
  0
BLOCK_RECORD
  5
564
330
1
100
AcDbSymbolTableRecord
100
AcDbBlockTableRecord
  2
AI9-BLK9
340
0
310
2800000020000000200000000100080000000000000400000000000000000000000000000000000000000000000080000080000000808000800000008000800080800000C0C0C000C0DCC000F0CAA6000020400000206000002080000020A0000020C0000020E00000400000004020000040400000406000004080000040A0
310
000040C0000040E00000600000006020000060400000606000006080000060A0000060C0000060E00000800000008020000080400000806000008080000080A0000080C0000080E00000A0000000A0200000A0400000A0600000A0800000A0A00000A0C00000A0E00000C0000000C0200000C0400000C0600000C0800000C0
310
A00000C0C00000C0E00000E0000000E0200000E0400000E0600000E0800000E0A00000E0C00000E0E00040000000400020004000400040006000400080004000A0004000C0004000E00040200000402020004020400040206000402080004020A0004020C0004020E000404000004040200040404000404060004040800040
310
40A0004040C0004040E00040600000406020004060400040606000406080004060A0004060C0004060E00040800000408020004080400040806000408080004080A0004080C0004080E00040A0000040A0200040A0400040A0600040A0800040A0A00040A0C00040A0E00040C0000040C0200040C0400040C0600040C08000
310
40C0A00040C0C00040C0E00040E0000040E0200040E0400040E0600040E0800040E0A00040E0C00040E0E00080000000800020008000400080006000800080008000A0008000C0008000E00080200000802020008020400080206000802080008020A0008020C0008020E00080400000804020008040400080406000804080
310
008040A0008040C0008040E00080600000806020008060400080606000806080008060A0008060C0008060E00080800000808020008080400080806000808080008080A0008080C0008080E00080A0000080A0200080A0400080A0600080A0800080A0A00080A0C00080A0E00080C0000080C0200080C0400080C0600080C0
310
800080C0A00080C0C00080C0E00080E0000080E0200080E0400080E0600080E0800080E0A00080E0C00080E0E000C0000000C0002000C0004000C0006000C0008000C000A000C000C000C000E000C0200000C0202000C0204000C0206000C0208000C020A000C020C000C020E000C0400000C0402000C0404000C0406000C0
310
408000C040A000C040C000C040E000C0600000C0602000C0604000C0606000C0608000C060A000C060C000C060E000C0800000C0802000C0804000C0806000C0808000C080A000C080C000C080E000C0A00000C0A02000C0A04000C0A06000C0A08000C0A0A000C0A0C000C0A0E000C0C00000C0C02000C0C04000C0C06000
310
C0C08000C0C0A000F0FBFF00A4A0A000808080000000FF0000FF000000FFFF00FF000000FF00FF00FFFF0000FFFFFF00FFFFFFFFFFFFFFFFFFFFFFFFFFFFFFFFFFFFFFFFFFFFFFFFFFFFFFFFFFFFFFFFFFFFFFFFFFFFFFFFFFFFFFFFFFFFFF0000FFFFFFFFFFFFFFFFFFFFFFFFFFFFFFFFFFFFFFFFFFFFFFFFFFFFFFFF0000
310
FF0000FFFFFFFFFFFFFFFFFFFFFFFFFFFFFFFFFFFFFFFFFFFFFFFFFFFFFF00FFFFFF0000FFFFFFFFFFFFFFFFFFFFFFFFFFFFFFFFFFFFFFFFFFFFFFFFFFFF00FFFFFFFF0000FFFFFFFFFFFFFFFFFFFFFFFFFFFFFFFFFFFFFFFFFFFFFFFF00FF00000000FF00FFFFFFFFFFFFFFFFFFFFFFFFFFFFFFFFFFFFFFFFFFFFFFFF0000
310
00FFFF00FF00FFFFFFFFFFFFFFFFFFFFFFFFFFFFFFFFFFFFFFFFFFFFFFFF0000FFFFFFFF0000FFFFFFFFFFFFFFFFFFFFFFFFFFFFFFFFFFFFFFFFFFFFFFFF0000FFFFFFFF0000FFFFFFFFFFFFFFFFFFFFFFFFFFFFFFFFFFFFFFFFFFFFFF00FF00FFFFFFFF00FF00FFFFFFFFFFFFFFFFFFFFFFFFFFFFFFFFFFFFFFFFFFFF0000
310
FFFFFFFFFF00FF00FFFFFFFFFFFFFFFFFFFFFFFFFFFFFFFFFFFFFFFFFFFF0000FFFFFFFFFFFF0000FFFFFFFFFFFFFFFFFFFFFFFFFFFFFFFFFFFFFFFFFFFF0000FFFFFFFFFFFF0000FFFFFFFFFFFFFFFFFFFFFFFFFFFFFFFFFFFFFFFFFFFF0000FFFFFFFFFFFF0000FFFFFFFFFFFFFFFFFFFFFFFFFFFFFFFFFFFFFFFFFFFF00
310
00FFFFFFFFFFFF0000FFFFFFFFFFFFFFFFFFFFFFFFFFFFFFFFFFFFFFFFFFFF0000FFFFFFFFFFFF0000FFFFFFFFFFFFFFFFFFFFFFFFFFFFFFFFFFFFFFFFFFFF0000FFFFFFFFFFFF0000FFFFFFFFFFFFFFFFFFFFFFFFFFFFFFFFFFFFFFFFFFFF0000FFFFFFFFFFFF0000FFFFFFFFFFFFFFFFFFFFFFFFFFFFFFFFFFFFFFFFFFFF
310
0000FFFFFFFFFFFF0000FFFFFFFFFFFFFFFFFFFFFFFFFFFFFFFFFFFFFFFFFFFF0000FFFFFFFFFFFF0000FFFFFFFFFFFFFFFFFFFFFFFFFFFFFFFFFFFFFFFFFFFF0000FFFFFFFFFFFF0000FFFFFFFFFFFFFFFFFFFFFFFFFFFFFFFFFFFFFFFFFFFF00FF00FFFFFFFF00FF00FFFFFFFFFFFFFFFFFFFFFFFFFFFFFFFFFFFFFFFFFF
310
FF00FF00FFFFFFFF00FF00FFFFFFFFFFFFFFFFFFFFFFFFFFFFFFFFFFFFFFFFFFFF00FF00FFFFFFFF00FF00FFFFFFFFFFFFFFFFFFFFFFFFFFFFFFFFFFFFFFFFFFFFFF0000FFFFFFFF0000FFFFFFFFFFFFFFFFFFFFFFFFFFFFFFFFFFFFFFFFFFFFFFFF00FF00FFFF00FF00FFFFFFFFFFFFFFFFFFFFFFFFFFFFFFFFFFFFFFFFFF
310
FFFFFF00FF00000000FF00FFFFFFFFFFFFFFFFFFFFFFFFFFFFFFFFFFFFFFFFFFFFFFFFFF00FFFFFFFF0000FFFFFFFFFFFFFFFFFFFFFFFFFFFFFFFFFFFFFFFFFFFFFFFFFF00FFFFFFFF00FFFFFFFFFFFFFFFFFFFFFFFFFFFFFFFFFFFFFFFFFFFFFFFFFFFFFF00000000FFFFFFFFFFFFFFFFFFFFFFFFFFFFFFFFFFFFFFFFFFFF
310
FFFFFFFFFFFFFF0000FFFFFFFFFFFFFFFFFFFFFFFFFFFFFFFFFFFFFFFFFFFFFFFFFFFFFFFFFFFFFFFFFFFFFFFFFFFFFFFFFFFFFFFFFFFFFF
102
{BLKREFS
331
596
102
}
  0
BLOCK_RECORD
  5
569
330
1
100
AcDbSymbolTableRecord
100
AcDbBlockTableRecord
  2
AI9-BLK8
340
0
310
2800000020000000200000000100080000000000000400000000000000000000000000000000000000000000000080000080000000808000800000008000800080800000C0C0C000C0DCC000F0CAA6000020400000206000002080000020A0000020C0000020E00000400000004020000040400000406000004080000040A0
310
000040C0000040E00000600000006020000060400000606000006080000060A0000060C0000060E00000800000008020000080400000806000008080000080A0000080C0000080E00000A0000000A0200000A0400000A0600000A0800000A0A00000A0C00000A0E00000C0000000C0200000C0400000C0600000C0800000C0
310
A00000C0C00000C0E00000E0000000E0200000E0400000E0600000E0800000E0A00000E0C00000E0E00040000000400020004000400040006000400080004000A0004000C0004000E00040200000402020004020400040206000402080004020A0004020C0004020E000404000004040200040404000404060004040800040
310
40A0004040C0004040E00040600000406020004060400040606000406080004060A0004060C0004060E00040800000408020004080400040806000408080004080A0004080C0004080E00040A0000040A0200040A0400040A0600040A0800040A0A00040A0C00040A0E00040C0000040C0200040C0400040C0600040C08000
310
40C0A00040C0C00040C0E00040E0000040E0200040E0400040E0600040E0800040E0A00040E0C00040E0E00080000000800020008000400080006000800080008000A0008000C0008000E00080200000802020008020400080206000802080008020A0008020C0008020E00080400000804020008040400080406000804080
310
008040A0008040C0008040E00080600000806020008060400080606000806080008060A0008060C0008060E00080800000808020008080400080806000808080008080A0008080C0008080E00080A0000080A0200080A0400080A0600080A0800080A0A00080A0C00080A0E00080C0000080C0200080C0400080C0600080C0
310
800080C0A00080C0C00080C0E00080E0000080E0200080E0400080E0600080E0800080E0A00080E0C00080E0E000C0000000C0002000C0004000C0006000C0008000C000A000C000C000C000E000C0200000C0202000C0204000C0206000C0208000C020A000C020C000C020E000C0400000C0402000C0404000C0406000C0
310
408000C040A000C040C000C040E000C0600000C0602000C0604000C0606000C0608000C060A000C060C000C060E000C0800000C0802000C0804000C0806000C0808000C080A000C080C000C080E000C0A00000C0A02000C0A04000C0A06000C0A08000C0A0A000C0A0C000C0A0E000C0C00000C0C02000C0C04000C0C06000
310
C0C08000C0C0A000F0FBFF00A4A0A000808080000000FF0000FF000000FFFF00FF000000FF00FF00FFFF0000FFFFFF00FFFFFFFFFFFFFFFFFFFFFFFFFFFFFFFFFFFFFFFFFFFFFFFFFFFFFFFFFFFFFFFFFFFFFFFFFFFFFFFFFFFFFF0000FFFFFFFFFFFF0000FFFFFFFFFFFFFFFFFFFFFFFFFFFFFFFFFFFFFFFFFFFF0000FFFF
310
FFFFFFFF0000FFFFFFFFFFFFFFFFFFFFFFFFFFFFFFFFFFFFFFFFFFFF0000FFFFFFFFFF00FF00FFFFFFFFFFFFFFFFFFFFFFFFFFFFFFFFFFFFFFFFFFFF0000FFFFFFFFFF00FF00FFFFFFFFFFFFFFFFFFFFFFFFFFFFFFFFFFFFFFFFFFFF0000FFFFFFFFFF00FF00FFFFFFFFFFFFFFFFFFFFFFFFFFFFFFFFFFFFFFFFFFFF0000FF
310
FFFFFF00FFFF00FFFFFFFFFFFFFFFFFFFFFFFFFFFFFFFFFFFFFFFFFFFF0000FFFFFFFF00FF0000FFFFFFFFFFFFFFFFFFFFFFFFFFFFFFFFFFFFFFFFFFFF0000FFFFFFFF00FF0000FFFFFFFFFFFFFFFFFFFFFFFFFFFFFFFFFFFFFFFFFFFF0000FFFFFFFF00000000FFFFFFFFFFFFFFFFFFFFFFFFFFFFFFFFFFFFFFFFFFFF0000
310
FFFFFF00FF000000FFFFFFFFFFFFFFFFFFFFFFFFFFFFFFFFFFFFFFFFFFFF0000FFFFFF00FF000000FFFFFFFFFFFFFFFFFFFFFFFFFFFFFFFFFFFFFFFFFFFF0000FFFFFF00FF000000FFFFFFFFFFFFFFFFFFFFFFFFFFFFFFFFFFFFFFFFFFFF0000FFFF00FF00FF0000FFFFFFFFFFFFFFFFFFFFFFFFFFFFFFFFFFFFFFFFFFFF00
310
00FFFF00FF00FF0000FFFFFFFFFFFFFFFFFFFFFFFFFFFFFFFFFFFFFFFFFFFF0000FFFF00FF00FF0000FFFFFFFFFFFFFFFFFFFFFFFFFFFFFFFFFFFFFFFFFFFF0000FF00FFFF00FF0000FFFFFFFFFFFFFFFFFFFFFFFFFFFFFFFFFFFFFFFFFFFF0000FF00FF00FFFF0000FFFFFFFFFFFFFFFFFFFFFFFFFFFFFFFFFFFFFFFFFFFF
310
0000FF00FF00FFFF0000FFFFFFFFFFFFFFFFFFFFFFFFFFFFFFFFFFFFFFFFFFFF0000FF00FF00FFFF0000FFFFFFFFFFFFFFFFFFFFFFFFFFFFFFFFFFFFFFFFFFFF000000FFFF00FFFF0000FFFFFFFFFFFFFFFFFFFFFFFFFFFFFFFFFFFFFFFFFFFF000000FF00FFFFFF0000FFFFFFFFFFFFFFFFFFFFFFFFFFFFFFFFFFFFFFFFFF
310
FF000000FF00FFFFFF0000FFFFFFFFFFFFFFFFFFFFFFFFFFFFFFFFFFFFFFFFFFFF0000FFFF00FFFFFF0000FFFFFFFFFFFFFFFFFFFFFFFFFFFFFFFFFFFFFFFFFFFF0000FFFF00FFFFFF0000FFFFFFFFFFFFFFFFFFFFFFFFFFFFFFFFFFFFFFFFFFFF00FFFF00FFFFFFFF0000FFFFFFFFFFFFFFFFFFFFFFFFFFFFFFFFFFFFFFFF
310
FFFF00FFFF00FFFFFFFF0000FFFFFFFFFFFFFFFFFFFFFFFFFFFFFFFFFFFFFFFFFFFF00FFFF00FFFFFFFF0000FFFFFFFFFFFFFFFFFFFFFFFFFFFFFFFFFFFFFFFFFFFF00FFFF00FFFFFFFF0000FFFFFFFFFFFFFFFFFFFFFFFFFFFFFFFFFFFFFFFFFFFF00FF00FFFFFFFFFF0000FFFFFFFFFFFFFFFFFFFFFFFFFFFFFFFFFFFFFF
310
FFFFFF000000FFFFFFFFFF0000FFFFFFFFFFFFFFFFFFFFFFFFFFFFFFFFFFFFFFFFFFFFFFFFFFFFFFFFFFFFFFFFFFFFFFFFFFFFFFFFFFFFFF
102
{BLKREFS
331
597
102
}
  0
BLOCK_RECORD
  5
56E
330
1
100
AcDbSymbolTableRecord
100
AcDbBlockTableRecord
  2
AI9-BLK7
340
0
310
2800000020000000200000000100080000000000000400000000000000000000000000000000000000000000000080000080000000808000800000008000800080800000C0C0C000C0DCC000F0CAA6000020400000206000002080000020A0000020C0000020E00000400000004020000040400000406000004080000040A0
310
000040C0000040E00000600000006020000060400000606000006080000060A0000060C0000060E00000800000008020000080400000806000008080000080A0000080C0000080E00000A0000000A0200000A0400000A0600000A0800000A0A00000A0C00000A0E00000C0000000C0200000C0400000C0600000C0800000C0
310
A00000C0C00000C0E00000E0000000E0200000E0400000E0600000E0800000E0A00000E0C00000E0E00040000000400020004000400040006000400080004000A0004000C0004000E00040200000402020004020400040206000402080004020A0004020C0004020E000404000004040200040404000404060004040800040
310
40A0004040C0004040E00040600000406020004060400040606000406080004060A0004060C0004060E00040800000408020004080400040806000408080004080A0004080C0004080E00040A0000040A0200040A0400040A0600040A0800040A0A00040A0C00040A0E00040C0000040C0200040C0400040C0600040C08000
310
40C0A00040C0C00040C0E00040E0000040E0200040E0400040E0600040E0800040E0A00040E0C00040E0E00080000000800020008000400080006000800080008000A0008000C0008000E00080200000802020008020400080206000802080008020A0008020C0008020E00080400000804020008040400080406000804080
310
008040A0008040C0008040E00080600000806020008060400080606000806080008060A0008060C0008060E00080800000808020008080400080806000808080008080A0008080C0008080E00080A0000080A0200080A0400080A0600080A0800080A0A00080A0C00080A0E00080C0000080C0200080C0400080C0600080C0
310
800080C0A00080C0C00080C0E00080E0000080E0200080E0400080E0600080E0800080E0A00080E0C00080E0E000C0000000C0002000C0004000C0006000C0008000C000A000C000C000C000E000C0200000C0202000C0204000C0206000C0208000C020A000C020C000C020E000C0400000C0402000C0404000C0406000C0
310
408000C040A000C040C000C040E000C0600000C0602000C0604000C0606000C0608000C060A000C060C000C060E000C0800000C0802000C0804000C0806000C0808000C080A000C080C000C080E000C0A00000C0A02000C0A04000C0A06000C0A08000C0A0A000C0A0C000C0A0E000C0C00000C0C02000C0C04000C0C06000
310
C0C08000C0C0A000F0FBFF00A4A0A000808080000000FF0000FF000000FFFF00FF000000FF00FF00FFFF0000FFFFFF00FFFFFFFFFFFFFFFFFFFFFFFFFFFFFFFFFFFFFFFFFFFFFFFFFFFFFFFFFFFFFFFFFFFFFFFFFFFFFFFFFFFFFFFFFFFFFF0000FFFFFFFFFFFFFFFFFFFFFFFFFFFFFFFFFFFFFFFFFFFFFFFFFFFFFFFFFFFF
310
0000FFFFFFFFFFFFFFFFFFFFFFFFFFFFFFFFFFFFFFFFFFFFFFFFFFFFFFFFFFFF0000FFFFFFFFFFFFFFFFFFFFFFFFFFFFFFFFFFFFFFFFFFFFFFFFFFFFFFFFFFFF0000FFFFFFFFFFFFFFFFFFFFFFFFFFFFFFFFFFFFFFFFFFFFFFFFFFFFFFFFFFFF0000FFFFFFFFFFFFFFFFFFFFFFFFFFFFFFFFFFFFFFFFFFFFFFFFFFFFFFFFFF
310
FF0000FFFFFFFFFFFFFFFFFFFFFFFFFFFFFFFFFFFFFFFFFFFFFFFFFFFFFFFFFFFF0000FFFFFFFFFFFFFFFFFFFFFFFFFFFFFFFFFFFFFFFFFFFFFFFFFFFFFFFFFFFF0000FFFFFFFFFFFFFFFFFFFFFFFFFFFFFFFFFFFFFFFFFFFFFFFFFFFFFFFFFFFF0000FFFFFFFFFFFFFFFFFFFFFFFFFFFFFFFFFFFFFFFFFFFFFFFFFFFFFFFF
310
FFFF0000FFFFFFFFFFFFFFFFFFFFFFFFFFFFFFFFFFFFFFFFFFFFFFFFFFFFFFFFFFFF0000FFFFFFFFFFFFFFFFFFFFFFFFFFFFFFFFFFFFFFFFFFFFFFFFFFFFFFFFFFFF0000FFFFFFFFFFFFFFFFFFFFFFFFFFFFFFFFFFFFFFFFFFFFFFFFFFFFFFFFFFFF0000FFFFFFFFFFFFFFFFFFFFFFFFFFFFFFFFFFFFFFFFFFFFFFFFFFFFFF
310
FFFFFF0000FFFFFFFFFFFFFFFFFFFFFFFFFFFFFFFFFFFFFFFFFFFFFFFFFFFFFFFFFFFF0000FFFFFFFFFFFFFFFFFFFFFFFFFFFFFFFFFFFFFFFFFFFFFFFFFFFFFFFFFFFF0000FFFFFFFFFFFFFFFFFFFFFFFFFFFFFFFFFFFFFFFFFFFFFFFFFFFFFFFFFFFF0000FFFFFFFFFFFFFFFFFFFFFFFFFFFFFFFFFFFFFFFFFFFFFFFFFFFF
310
FFFFFFFF0000FFFFFFFFFFFFFFFFFFFFFFFFFFFFFFFFFFFFFFFFFFFFFFFFFFFFFFFFFFFF0000FFFFFFFFFFFFFFFFFFFFFFFFFFFFFFFFFFFFFFFFFFFFFFFFFFFFFFFFFFFF0000FFFFFFFFFFFFFFFFFFFFFFFFFFFFFFFFFFFFFFFFFFFFFFFFFFFFFFFFFFFF0000FFFFFFFFFFFFFFFFFFFFFFFFFFFFFFFFFFFFFFFFFFFFFFFFFF
310
FFFFFFFFFF0000FFFFFFFFFFFFFFFFFFFFFFFFFFFFFFFFFFFFFFFFFFFFFFFFFFFFFFFFFFFF0000FFFFFFFFFFFFFFFFFFFFFFFFFFFFFFFFFFFFFFFFFFFFFFFFFFFFFFFFFFFF0000FFFFFFFFFFFFFFFFFFFFFFFFFFFFFFFFFFFFFFFFFFFFFFFFFFFFFFFFFFFF0000FFFFFFFFFFFFFFFFFFFFFFFFFFFFFFFFFFFFFFFFFFFFFFFF
310
FFFFFFFFFFFF0000FFFFFFFFFFFFFFFFFFFFFFFFFFFFFFFFFFFFFFFFFFFFFFFFFFFFFFFFFFFF0000FFFFFFFFFFFFFFFFFFFFFFFFFFFFFFFFFFFFFFFFFFFFFFFFFFFFFFFFFFFF0000FFFFFFFFFFFFFFFFFFFFFFFFFFFFFFFFFFFFFFFFFFFFFFFFFFFFFFFFFFFF0000FFFFFFFFFFFFFFFFFFFFFFFFFFFFFFFFFFFFFFFFFFFFFF
310
FFFFFFFFFFFFFF0000FFFFFFFFFFFFFFFFFFFFFFFFFFFFFFFFFFFFFFFFFFFFFFFFFFFFFFFFFFFFFFFFFFFFFFFFFFFFFFFFFFFFFFFFFFFFFF
102
{BLKREFS
331
598
102
}
  0
BLOCK_RECORD
  5
573
330
1
100
AcDbSymbolTableRecord
100
AcDbBlockTableRecord
  2
AI9-BLK6
340
0
310
2800000020000000200000000100080000000000000400000000000000000000000000000000000000000000000080000080000000808000800000008000800080800000C0C0C000C0DCC000F0CAA6000020400000206000002080000020A0000020C0000020E00000400000004020000040400000406000004080000040A0
310
000040C0000040E00000600000006020000060400000606000006080000060A0000060C0000060E00000800000008020000080400000806000008080000080A0000080C0000080E00000A0000000A0200000A0400000A0600000A0800000A0A00000A0C00000A0E00000C0000000C0200000C0400000C0600000C0800000C0
310
A00000C0C00000C0E00000E0000000E0200000E0400000E0600000E0800000E0A00000E0C00000E0E00040000000400020004000400040006000400080004000A0004000C0004000E00040200000402020004020400040206000402080004020A0004020C0004020E000404000004040200040404000404060004040800040
310
40A0004040C0004040E00040600000406020004060400040606000406080004060A0004060C0004060E00040800000408020004080400040806000408080004080A0004080C0004080E00040A0000040A0200040A0400040A0600040A0800040A0A00040A0C00040A0E00040C0000040C0200040C0400040C0600040C08000
310
40C0A00040C0C00040C0E00040E0000040E0200040E0400040E0600040E0800040E0A00040E0C00040E0E00080000000800020008000400080006000800080008000A0008000C0008000E00080200000802020008020400080206000802080008020A0008020C0008020E00080400000804020008040400080406000804080
310
008040A0008040C0008040E00080600000806020008060400080606000806080008060A0008060C0008060E00080800000808020008080400080806000808080008080A0008080C0008080E00080A0000080A0200080A0400080A0600080A0800080A0A00080A0C00080A0E00080C0000080C0200080C0400080C0600080C0
310
800080C0A00080C0C00080C0E00080E0000080E0200080E0400080E0600080E0800080E0A00080E0C00080E0E000C0000000C0002000C0004000C0006000C0008000C000A000C000C000C000E000C0200000C0202000C0204000C0206000C0208000C020A000C020C000C020E000C0400000C0402000C0404000C0406000C0
310
408000C040A000C040C000C040E000C0600000C0602000C0604000C0606000C0608000C060A000C060C000C060E000C0800000C0802000C0804000C0806000C0808000C080A000C080C000C080E000C0A00000C0A02000C0A04000C0A06000C0A08000C0A0A000C0A0C000C0A0E000C0C00000C0C02000C0C04000C0C06000
310
C0C08000C0C0A000F0FBFF00A4A0A000808080000000FF0000FF000000FFFF00FF000000FF00FF00FFFF0000FFFFFF00FFFFFFFFFFFFFFFFFFFFFFFF00FFFFFFFFFFFFFF00FFFFFFFFFFFFFFFFFFFFFFFFFFFFFFFFFFFFFFFFFFFFFF00FFFFFFFFFFFFFF00FFFFFFFFFFFFFFFFFFFFFFFFFFFFFFFFFFFFFFFFFFFFFF00FFFF
310
FFFFFFFFFF00FFFFFFFFFFFFFFFFFFFFFFFFFFFFFFFFFFFFFFFFFFFF00FFFFFFFFFFFFFFFF00FFFFFFFFFFFFFFFFFFFFFFFFFFFFFFFFFFFFFFFFFFFF00FFFFFFFFFFFFFF00FFFFFFFFFFFFFFFFFFFFFFFFFFFFFFFFFFFFFFFFFFFFFF00FFFFFFFFFFFFFF00FFFFFFFFFFFFFFFFFFFFFFFFFFFFFFFFFFFFFFFFFFFF00FFFFFF
310
FFFFFFFFFF00FFFFFFFFFFFFFFFFFFFFFFFFFFFFFFFFFFFFFFFFFFFF00FFFFFFFFFFFFFF00FFFFFFFFFFFFFFFFFFFFFFFFFFFFFFFFFFFFFFFFFFFF00FFFFFFFFFFFFFFFF00FFFFFFFFFFFFFFFFFFFFFFFFFFFFFFFFFFFFFFFFFF00FFFFFFFFFFFFFFFFFF00FFFFFFFFFFFFFFFFFFFFFFFFFFFFFFFFFFFFFFFF00FFFFFFFFFF
310
FFFFFFFFFF00FFFFFFFFFFFFFFFFFFFFFFFFFFFFFFFFFFFFFF00FFFFFFFFFFFFFFFFFFFF00FFFFFFFFFFFFFFFFFFFFFFFFFFFFFFFFFFFF0000FFFFFFFFFFFFFFFFFFFFFF00FFFFFFFFFFFFFFFFFFFFFFFFFFFF00000000FFFFFFFFFFFFFFFFFFFFFFFFFF00FFFFFFFFFFFFFFFFFFFFFFFFFFFFFFFFFFFFFFFFFFFFFFFFFFFF
310
FFFFFFFF00FFFFFFFFFFFFFFFFFFFFFFFFFFFFFFFFFFFFFFFFFFFFFFFFFFFFFFFFFFFFFF00FFFFFFFFFFFFFFFFFFFFFFFFFFFFFFFFFFFFFFFFFFFFFFFFFFFFFFFFFFFFFF00FFFFFFFFFFFFFFFFFFFFFFFFFFFFFFFFFFFFFFFFFFFFFFFFFFFFFFFFFFFF00FFFFFFFFFFFFFFFFFFFFFFFFFFFFFFFFFFFFFFFFFFFFFFFFFFFFFF
310
FFFFFFFF00FFFFFFFFFFFFFFFFFFFFFFFFFFFFFFFFFFFFFFFFFFFFFFFFFFFFFFFFFFFF00FFFFFFFFFFFFFFFFFFFFFFFFFFFFFFFFFFFFFFFFFFFFFFFFFFFFFFFFFFFF00FFFFFFFFFFFFFFFFFFFFFFFFFFFFFFFFFFFFFFFFFFFFFFFFFFFFFFFFFFFF00FFFFFFFFFFFFFFFFFFFFFFFFFFFFFFFFFFFFFFFFFFFFFFFFFFFFFFFFFF
310
FF00FFFFFFFFFFFFFFFFFFFFFFFFFFFFFFFFFFFFFFFFFFFFFFFFFFFFFFFFFFFFFF00FFFFFFFFFFFFFFFFFFFFFFFFFFFFFFFFFFFFFFFFFFFFFFFFFFFFFFFFFFFF00FFFFFFFFFFFFFFFFFFFFFFFFFFFFFFFFFFFFFFFFFFFFFFFFFFFFFFFFFF0000FFFFFFFFFFFFFFFFFFFFFFFFFFFFFFFFFFFFFFFFFFFFFFFFFFFFFFFF0000FF
310
FFFFFFFFFFFFFFFFFFFFFFFFFFFFFFFFFFFFFFFFFFFFFFFFFF00000000FFFFFFFFFFFFFFFFFFFFFFFFFFFFFFFFFFFFFFFFFFFFFFFFFFFF0000FFFFFFFFFFFFFFFFFFFFFFFFFFFFFFFFFFFFFFFFFFFFFFFFFFFFFFFFFFFFFFFFFFFFFFFFFFFFFFFFFFFFFFFFFFFFFFFFFFFFFFFFFFFFFFFFFFFFFFFFFFFFFFFFFFFFFFFFFFFF
310
FFFFFFFFFFFFFFFFFFFFFFFFFFFFFFFFFFFFFFFFFFFFFFFFFFFFFFFFFFFFFFFFFFFFFFFFFFFFFFFFFFFFFFFFFFFFFFFFFFFFFFFFFFFFFFFF
102
{BLKREFS
331
599
102
}
  0
BLOCK_RECORD
  5
577
330
1
100
AcDbSymbolTableRecord
100
AcDbBlockTableRecord
  2
AI9-BLK5
340
0
310
2800000020000000200000000100080000000000000400000000000000000000000000000000000000000000000080000080000000808000800000008000800080800000C0C0C000C0DCC000F0CAA6000020400000206000002080000020A0000020C0000020E00000400000004020000040400000406000004080000040A0
310
000040C0000040E00000600000006020000060400000606000006080000060A0000060C0000060E00000800000008020000080400000806000008080000080A0000080C0000080E00000A0000000A0200000A0400000A0600000A0800000A0A00000A0C00000A0E00000C0000000C0200000C0400000C0600000C0800000C0
310
A00000C0C00000C0E00000E0000000E0200000E0400000E0600000E0800000E0A00000E0C00000E0E00040000000400020004000400040006000400080004000A0004000C0004000E00040200000402020004020400040206000402080004020A0004020C0004020E000404000004040200040404000404060004040800040
310
40A0004040C0004040E00040600000406020004060400040606000406080004060A0004060C0004060E00040800000408020004080400040806000408080004080A0004080C0004080E00040A0000040A0200040A0400040A0600040A0800040A0A00040A0C00040A0E00040C0000040C0200040C0400040C0600040C08000
310
40C0A00040C0C00040C0E00040E0000040E0200040E0400040E0600040E0800040E0A00040E0C00040E0E00080000000800020008000400080006000800080008000A0008000C0008000E00080200000802020008020400080206000802080008020A0008020C0008020E00080400000804020008040400080406000804080
310
008040A0008040C0008040E00080600000806020008060400080606000806080008060A0008060C0008060E00080800000808020008080400080806000808080008080A0008080C0008080E00080A0000080A0200080A0400080A0600080A0800080A0A00080A0C00080A0E00080C0000080C0200080C0400080C0600080C0
310
800080C0A00080C0C00080C0E00080E0000080E0200080E0400080E0600080E0800080E0A00080E0C00080E0E000C0000000C0002000C0004000C0006000C0008000C000A000C000C000C000E000C0200000C0202000C0204000C0206000C0208000C020A000C020C000C020E000C0400000C0402000C0404000C0406000C0
310
408000C040A000C040C000C040E000C0600000C0602000C0604000C0606000C0608000C060A000C060C000C060E000C0800000C0802000C0804000C0806000C0808000C080A000C080C000C080E000C0A00000C0A02000C0A04000C0A06000C0A08000C0A0A000C0A0C000C0A0E000C0C00000C0C02000C0C04000C0C06000
310
C0C08000C0C0A000F0FBFF00A4A0A000808080000000FF0000FF000000FFFF00FF000000FF00FF00FFFF0000FFFFFF00FFFFFFFFFFFFFFFFFFFFFFFFFFFFFFFFFFFFFFFFFFFFFFFFFFFFFFFFFFFFFFFFFFFFFFFFFFFFFFFF000000000000000000000000000000000000000000000000FFFFFFFFFFFFFFFF00FFFFFFFFFFFF
310
FFFFFFFFFFFFFFFFFFFFFFFFFFFFFFFFFFFFFFFFFFFFFFFFFF00FFFFFFFFFFFFFFFFFFFFFFFFFFFFFFFFFFFFFFFFFFFFFFFFFFFFFFFFFFFFFF00FFFFFFFFFFFFFFFFFFFFFFFFFFFFFFFFFFFFFFFFFFFFFFFFFFFFFFFFFFFFFF00FFFFFFFFFFFFFFFFFFFFFFFFFFFFFFFFFFFFFFFFFFFFFFFFFFFFFFFFFFFFFF00FFFFFFFFFF
310
FFFFFFFFFFFFFFFFFFFFFFFFFFFFFFFFFFFFFFFFFFFFFFFFFFFF00FFFFFFFFFFFFFFFFFFFFFFFFFFFFFFFFFFFFFFFFFFFFFFFFFFFFFFFFFFFFFF00FFFFFFFFFFFFFFFFFFFFFFFFFFFFFFFFFFFFFFFFFFFFFFFFFFFFFFFFFFFFFF00FFFFFFFFFFFFFFFFFFFFFFFFFFFFFFFFFFFFFFFFFFFFFFFFFFFFFFFFFFFFFF00FFFFFFFF
310
FFFFFFFFFFFFFFFFFFFFFFFFFFFFFFFFFFFFFFFFFFFFFFFFFFFFFF00FFFFFFFFFFFFFFFFFFFFFFFFFFFFFFFFFFFFFFFFFFFFFFFFFFFFFFFFFFFFFF00FFFFFFFFFFFFFFFFFFFFFFFFFFFFFFFFFFFFFFFFFFFFFFFFFFFFFFFFFFFFFF00FFFFFFFFFFFFFFFFFFFFFFFFFFFFFFFFFFFFFFFFFFFFFFFFFFFFFFFFFFFFFF00FFFFFF
310
FFFFFFFFFFFFFFFFFFFFFFFFFFFFFFFFFFFFFFFFFFFFFFFFFFFFFFFF00FFFFFFFFFFFFFFFFFFFFFFFFFFFFFFFFFFFFFFFFFFFFFFFFFFFFFFFFFFFFFF00FFFFFFFFFFFFFFFFFFFFFFFFFFFFFFFFFFFFFFFFFFFFFFFFFFFFFFFFFFFFFF00FFFFFFFFFFFFFFFFFFFFFFFFFFFFFFFFFFFFFFFFFFFFFFFFFFFFFFFFFFFFFF00FFFF
310
FFFFFFFFFFFFFFFFFFFFFFFFFFFFFFFFFFFFFFFFFFFFFFFFFFFFFFFFFF00FFFFFFFFFFFFFFFFFFFFFFFFFFFFFFFFFFFFFFFFFFFFFFFFFFFFFFFFFFFFFF00FFFFFFFFFFFFFFFFFFFFFFFFFFFFFFFFFFFFFFFFFFFFFFFFFFFFFFFFFFFFFF00FFFFFFFFFFFFFFFFFFFFFFFFFFFFFFFFFFFFFFFFFFFFFFFFFFFFFFFFFFFFFF00FF
310
FFFFFFFFFFFFFFFFFFFFFFFFFFFFFFFFFFFFFFFFFFFFFFFFFFFFFFFFFFFF00FFFFFFFFFFFFFFFFFFFFFFFFFFFFFFFFFFFFFFFFFFFFFFFFFFFFFFFFFFFFFF00FFFFFFFFFFFFFFFFFFFFFFFFFFFFFFFFFFFFFFFFFFFFFFFFFFFFFFFFFFFFFF00FFFFFFFFFFFFFFFFFFFFFFFFFFFFFFFFFFFFFFFFFFFFFFFFFFFFFFFFFFFFFF00
310
FFFFFFFFFFFFFFFFFFFFFFFFFFFFFFFFFFFFFFFFFFFFFFFFFFFFFFFFFFFFFF00FFFFFFFFFFFFFFFFFFFFFFFFFFFFFFFFFFFFFFFFFFFFFFFFFFFFFFFFFFFFFF00FFFFFFFFFFFFFFFFFFFFFFFFFFFFFFFFFFFFFFFFFFFFFFFFFFFFFFFFFFFFFF00FFFFFFFFFFFFFFFFFFFFFFFFFFFFFFFFFFFFFFFFFFFFFFFFFFFFFFFFFFFFFF
310
00FFFFFFFFFFFFFFFFFFFFFFFFFFFF000000000000000000FFFFFFFFFFFFFFFF00FFFFFFFFFFFFFFFFFFFFFFFFFFFF00FFFFFFFFFFFFFFFF
102
{BLKREFS
331
59A
102
}
  0
BLOCK_RECORD
  5
57C
330
1
100
AcDbSymbolTableRecord
100
AcDbBlockTableRecord
  2
AI9-BLK4
340
0
310
2800000020000000200000000100080000000000000400000000000000000000000000000000000000000000000080000080000000808000800000008000800080800000C0C0C000C0DCC000F0CAA6000020400000206000002080000020A0000020C0000020E00000400000004020000040400000406000004080000040A0
310
000040C0000040E00000600000006020000060400000606000006080000060A0000060C0000060E00000800000008020000080400000806000008080000080A0000080C0000080E00000A0000000A0200000A0400000A0600000A0800000A0A00000A0C00000A0E00000C0000000C0200000C0400000C0600000C0800000C0
310
A00000C0C00000C0E00000E0000000E0200000E0400000E0600000E0800000E0A00000E0C00000E0E00040000000400020004000400040006000400080004000A0004000C0004000E00040200000402020004020400040206000402080004020A0004020C0004020E000404000004040200040404000404060004040800040
310
40A0004040C0004040E00040600000406020004060400040606000406080004060A0004060C0004060E00040800000408020004080400040806000408080004080A0004080C0004080E00040A0000040A0200040A0400040A0600040A0800040A0A00040A0C00040A0E00040C0000040C0200040C0400040C0600040C08000
310
40C0A00040C0C00040C0E00040E0000040E0200040E0400040E0600040E0800040E0A00040E0C00040E0E00080000000800020008000400080006000800080008000A0008000C0008000E00080200000802020008020400080206000802080008020A0008020C0008020E00080400000804020008040400080406000804080
310
008040A0008040C0008040E00080600000806020008060400080606000806080008060A0008060C0008060E00080800000808020008080400080806000808080008080A0008080C0008080E00080A0000080A0200080A0400080A0600080A0800080A0A00080A0C00080A0E00080C0000080C0200080C0400080C0600080C0
310
800080C0A00080C0C00080C0E00080E0000080E0200080E0400080E0600080E0800080E0A00080E0C00080E0E000C0000000C0002000C0004000C0006000C0008000C000A000C000C000C000E000C0200000C0202000C0204000C0206000C0208000C020A000C020C000C020E000C0400000C0402000C0404000C0406000C0
310
408000C040A000C040C000C040E000C0600000C0602000C0604000C0606000C0608000C060A000C060C000C060E000C0800000C0802000C0804000C0806000C0808000C080A000C080C000C080E000C0A00000C0A02000C0A04000C0A06000C0A08000C0A0A000C0A0C000C0A0E000C0C00000C0C02000C0C04000C0C06000
310
C0C08000C0C0A000F0FBFF00A4A0A000808080000000FF0000FF000000FFFF00FF000000FF00FF00FFFF0000FFFFFF00FFFFFFFFFFFFFFFFFFFFFFFFFFFFFFFFFFFFFFFFFFFFFFFFFFFFFFFFFFFFFFFFFFFFFFFFFFFFFFFFFFFFFFFFFFFF00000000FFFFFFFFFFFFFFFFFFFFFF000000FFFFFFFFFFFFFFFFFFFFFFFFFFFF00
310
FFFF00FFFFFFFFFFFFFFFFFFFFFF00FFFFFFFFFFFFFFFFFFFFFFFFFFFFFFFF00FFFF00FFFFFFFFFFFFFFFFFFFFFF00FFFFFFFFFFFFFFFFFFFFFFFFFFFFFFFF00FFFF00FFFFFFFFFFFFFFFFFFFFFF00FFFFFFFFFFFFFFFFFFFFFFFFFFFFFFFF00FFFF00FFFFFFFFFFFFFFFFFFFFFF00FFFFFFFFFFFFFFFFFFFFFFFFFFFFFFFF
310
00FFFF00FFFFFFFFFFFFFFFFFFFFFF00FFFFFFFFFFFFFFFFFFFFFFFFFFFFFFFF00FFFF00FFFFFFFFFFFFFFFFFFFFFF00FFFFFFFFFFFFFFFFFFFFFFFFFFFFFFFF00FFFF00FFFFFFFFFFFFFFFFFFFFFF00FFFFFFFFFFFFFFFFFFFFFFFFFFFFFFFF00FFFF00FFFFFFFFFFFFFFFFFFFFFF00FFFFFFFFFFFFFFFFFFFFFFFFFFFFFF
310
FF00FFFF00FFFFFFFFFFFFFFFFFFFFFF00FFFFFFFFFFFFFFFFFFFFFFFFFFFFFFFF00FFFF00FFFFFFFFFFFFFFFFFFFFFF00FFFFFFFFFFFFFFFFFFFFFFFFFFFFFFFF00FFFF00FFFFFFFFFFFFFFFFFFFFFF00FFFFFFFFFFFFFFFFFFFFFFFFFFFFFFFF00FFFF00FFFFFFFFFFFFFFFFFFFFFF00FFFFFFFFFFFFFFFFFFFFFFFFFFFF
310
FFFF00FFFF00FFFFFFFFFFFFFFFFFFFFFF00FFFFFFFFFFFFFFFFFFFFFFFFFFFFFFFF00FFFF00FFFFFFFFFFFFFFFFFFFFFF00FFFFFFFFFFFFFFFFFFFFFFFFFFFFFFFF00FFFF00FFFFFFFFFFFFFFFFFFFFFF00FFFFFFFFFFFFFFFFFFFFFFFFFFFFFFFF00FFFF00FFFFFFFFFFFFFFFFFFFF00FFFFFFFFFFFFFFFFFFFFFFFFFFFF
310
FFFFFF00FFFF00FFFFFFFFFFFFFFFFFFFF00FFFFFFFFFFFFFFFFFFFFFFFFFFFFFFFFFF00FFFF00FFFFFFFFFFFFFFFFFFFF00FFFFFFFFFFFFFFFFFFFFFFFFFFFFFFFFFF00FFFF00FFFFFFFFFFFFFFFFFFFF00FFFFFFFFFFFFFFFFFFFFFFFFFFFFFFFFFF00FFFF00FFFFFFFFFFFFFFFFFFFF00FFFFFFFFFFFFFFFFFFFFFFFFFF
310
FFFFFFFF00FFFF00FFFFFFFFFFFFFFFFFF0000FFFF00FFFFFFFFFFFFFFFFFFFFFFFFFFFF00FFFF00FFFFFFFFFFFFFFFF0000FFFFFF00FFFFFFFFFFFFFFFFFFFFFFFFFFFF00FFFF00000000000000000000FFFFFFFF00FFFFFFFFFFFFFFFFFFFFFFFFFFFF00FFFFFFFFFFFFFFFFFFFFFFFFFFFFFF00FFFFFFFFFFFFFFFFFFFF
310
FFFFFFFFFF00FFFFFFFFFFFFFFFFFFFFFFFFFFFF00FFFFFFFFFFFFFFFFFFFFFFFFFFFFFFFF00FFFFFFFFFFFFFFFFFFFFFFFFFFFF00FFFFFFFFFFFFFFFFFFFFFFFFFFFFFFFF00FFFFFFFFFFFFFFFFFFFFFFFFFFFFFF00FFFFFFFFFFFFFFFFFFFFFFFFFFFFFF00FFFFFFFFFFFFFFFFFFFFFFFFFFFFFF00FFFFFFFFFFFFFFFFFF
310
FFFFFFFFFFFF00FFFF00000000000000000000FFFFFFFF00FFFFFFFFFFFFFFFFFFFFFFFFFFFF00FFFF00FFFFFFFFFFFFFFFFFF0000FFFF00
102
{BLKREFS
331
59B
102
}
  0
BLOCK_RECORD
  5
581
330
1
100
AcDbSymbolTableRecord
100
AcDbBlockTableRecord
  2
AI9-BLK3
340
0
310
2800000020000000200000000100080000000000000400000000000000000000000000000000000000000000000080000080000000808000800000008000800080800000C0C0C000C0DCC000F0CAA6000020400000206000002080000020A0000020C0000020E00000400000004020000040400000406000004080000040A0
310
000040C0000040E00000600000006020000060400000606000006080000060A0000060C0000060E00000800000008020000080400000806000008080000080A0000080C0000080E00000A0000000A0200000A0400000A0600000A0800000A0A00000A0C00000A0E00000C0000000C0200000C0400000C0600000C0800000C0
310
A00000C0C00000C0E00000E0000000E0200000E0400000E0600000E0800000E0A00000E0C00000E0E00040000000400020004000400040006000400080004000A0004000C0004000E00040200000402020004020400040206000402080004020A0004020C0004020E000404000004040200040404000404060004040800040
310
40A0004040C0004040E00040600000406020004060400040606000406080004060A0004060C0004060E00040800000408020004080400040806000408080004080A0004080C0004080E00040A0000040A0200040A0400040A0600040A0800040A0A00040A0C00040A0E00040C0000040C0200040C0400040C0600040C08000
310
40C0A00040C0C00040C0E00040E0000040E0200040E0400040E0600040E0800040E0A00040E0C00040E0E00080000000800020008000400080006000800080008000A0008000C0008000E00080200000802020008020400080206000802080008020A0008020C0008020E00080400000804020008040400080406000804080
310
008040A0008040C0008040E00080600000806020008060400080606000806080008060A0008060C0008060E00080800000808020008080400080806000808080008080A0008080C0008080E00080A0000080A0200080A0400080A0600080A0800080A0A00080A0C00080A0E00080C0000080C0200080C0400080C0600080C0
310
800080C0A00080C0C00080C0E00080E0000080E0200080E0400080E0600080E0800080E0A00080E0C00080E0E000C0000000C0002000C0004000C0006000C0008000C000A000C000C000C000E000C0200000C0202000C0204000C0206000C0208000C020A000C020C000C020E000C0400000C0402000C0404000C0406000C0
310
408000C040A000C040C000C040E000C0600000C0602000C0604000C0606000C0608000C060A000C060C000C060E000C0800000C0802000C0804000C0806000C0808000C080A000C080C000C080E000C0A00000C0A02000C0A04000C0A06000C0A08000C0A0A000C0A0C000C0A0E000C0C00000C0C02000C0C04000C0C06000
310
C0C08000C0C0A000F0FBFF00A4A0A000808080000000FF0000FF000000FFFF00FF000000FF00FF00FFFF0000FFFFFF00FFFFFFFFFFFFFFFFFFFFFFFFFFFFFFFFFFFFFFFFFFFFFFFFFFFFFFFFFFFFFFFFFFFFFFFFFFFFFFFFFFFFFFFFFFFFFF0000FFFFFFFFFFFFFFFFFFFFFFFFFFFFFFFFFFFFFFFFFFFFFFFFFFFFFFFFFFFF
310
0000FFFFFFFFFFFFFFFFFFFFFFFFFFFFFFFFFFFFFFFFFFFFFFFFFFFFFFFFFFFF0000FFFFFFFFFFFFFFFFFFFFFFFFFFFFFFFFFFFFFFFFFFFFFFFFFFFFFFFFFFFF0000FFFFFFFFFFFFFFFFFFFFFFFFFFFFFFFFFFFFFFFFFFFFFFFFFFFFFFFFFFFF0000FFFFFFFFFFFFFFFFFFFFFFFFFFFFFFFFFFFFFFFFFFFFFFFFFFFFFFFFFF
310
FF0000FFFFFFFFFFFFFFFFFFFFFFFFFFFFFFFFFFFFFFFFFFFFFFFFFFFFFFFFFFFF0000FFFFFFFFFFFFFFFFFFFFFFFFFFFFFFFFFFFFFFFFFFFFFFFFFFFFFFFFFFFF0000FFFFFFFFFFFFFFFFFFFFFFFFFFFFFFFFFFFFFFFFFFFFFFFFFFFFFFFFFFFF0000FFFFFFFFFFFFFFFFFFFFFFFFFFFFFFFFFFFFFFFFFFFFFFFFFFFFFFFF
310
FFFF0000FFFFFFFFFFFFFFFFFFFFFFFFFFFFFFFFFFFFFFFFFFFFFFFFFFFFFFFFFFFF0000FFFFFFFFFFFFFFFFFFFFFFFFFFFFFFFFFFFFFFFFFFFFFFFFFFFFFFFFFFFF0000FFFFFFFFFFFFFFFFFFFFFFFFFFFFFFFFFFFFFFFFFFFFFFFFFFFFFFFFFFFF0000FFFFFFFFFFFFFFFFFFFFFFFFFFFFFFFFFFFFFFFFFFFFFFFFFFFFFF
310
FFFFFF0000FFFFFFFFFFFFFFFFFFFFFFFFFFFFFFFFFFFFFFFFFFFFFFFFFFFFFFFFFFFF0000FFFFFFFFFFFFFFFFFFFFFFFFFFFFFFFFFFFFFFFFFFFFFFFFFFFFFFFFFFFF0000FFFFFFFFFFFFFFFFFFFFFFFFFFFFFFFFFFFFFFFFFFFFFFFFFFFFFFFFFFFF0000FFFFFFFFFFFFFFFFFFFFFFFFFFFFFFFFFFFFFFFFFFFFFFFFFFFF
310
FFFFFFFF0000FFFFFFFFFFFFFFFFFFFFFFFFFFFFFFFFFFFFFFFFFFFFFFFFFFFFFFFFFFFF0000FFFFFFFFFFFFFFFFFFFFFFFFFFFFFFFFFFFFFFFFFFFFFFFFFFFFFFFFFFFF0000FFFFFFFFFFFFFFFFFFFFFFFFFFFFFFFFFFFFFFFFFFFFFFFFFFFFFFFFFFFF0000FFFFFFFFFFFFFFFFFFFFFFFFFFFFFFFFFFFFFFFFFFFFFFFFFF
310
FFFFFFFFFF0000FFFFFFFFFFFFFFFFFFFFFFFFFFFFFFFFFFFFFFFFFFFFFFFFFFFFFFFFFFFF0000FFFFFFFFFFFFFFFFFFFFFFFFFFFFFFFFFFFFFFFFFFFFFFFFFFFFFFFFFFFF0000FFFFFFFFFFFFFFFFFFFFFFFFFFFFFFFFFFFFFFFFFFFFFFFFFFFFFFFFFFFF0000FFFFFFFFFFFFFFFFFFFFFFFFFFFFFFFFFFFFFFFFFFFFFFFF
310
FFFFFFFFFFFF0000FFFFFFFFFFFFFFFFFFFFFFFFFFFFFFFFFFFFFFFFFFFFFFFFFFFFFFFFFFFF0000FFFFFFFFFFFFFFFFFFFFFFFFFFFFFFFFFFFFFFFFFFFFFFFFFFFFFFFFFFFF0000FFFFFFFFFFFFFFFFFFFFFFFFFFFFFFFFFFFFFFFFFFFFFFFFFFFFFFFFFFFF0000FFFFFFFFFFFFFFFFFFFFFFFFFFFFFFFFFFFFFFFFFFFFFF
310
FFFFFFFFFFFFFF0000FFFFFFFFFFFFFFFFFFFFFFFFFFFFFFFFFFFFFFFFFFFFFFFFFFFFFFFFFFFFFFFFFFFFFFFFFFFFFFFFFFFFFFFFFFFFFF
102
{BLKREFS
331
59C
102
}
  0
BLOCK_RECORD
  5
586
330
1
100
AcDbSymbolTableRecord
100
AcDbBlockTableRecord
  2
AI9-BLK2
340
0
310
2800000020000000200000000100080000000000000400000000000000000000000000000000000000000000000080000080000000808000800000008000800080800000C0C0C000C0DCC000F0CAA6000020400000206000002080000020A0000020C0000020E00000400000004020000040400000406000004080000040A0
310
000040C0000040E00000600000006020000060400000606000006080000060A0000060C0000060E00000800000008020000080400000806000008080000080A0000080C0000080E00000A0000000A0200000A0400000A0600000A0800000A0A00000A0C00000A0E00000C0000000C0200000C0400000C0600000C0800000C0
310
A00000C0C00000C0E00000E0000000E0200000E0400000E0600000E0800000E0A00000E0C00000E0E00040000000400020004000400040006000400080004000A0004000C0004000E00040200000402020004020400040206000402080004020A0004020C0004020E000404000004040200040404000404060004040800040
310
40A0004040C0004040E00040600000406020004060400040606000406080004060A0004060C0004060E00040800000408020004080400040806000408080004080A0004080C0004080E00040A0000040A0200040A0400040A0600040A0800040A0A00040A0C00040A0E00040C0000040C0200040C0400040C0600040C08000
310
40C0A00040C0C00040C0E00040E0000040E0200040E0400040E0600040E0800040E0A00040E0C00040E0E00080000000800020008000400080006000800080008000A0008000C0008000E00080200000802020008020400080206000802080008020A0008020C0008020E00080400000804020008040400080406000804080
310
008040A0008040C0008040E00080600000806020008060400080606000806080008060A0008060C0008060E00080800000808020008080400080806000808080008080A0008080C0008080E00080A0000080A0200080A0400080A0600080A0800080A0A00080A0C00080A0E00080C0000080C0200080C0400080C0600080C0
310
800080C0A00080C0C00080C0E00080E0000080E0200080E0400080E0600080E0800080E0A00080E0C00080E0E000C0000000C0002000C0004000C0006000C0008000C000A000C000C000C000E000C0200000C0202000C0204000C0206000C0208000C020A000C020C000C020E000C0400000C0402000C0404000C0406000C0
310
408000C040A000C040C000C040E000C0600000C0602000C0604000C0606000C0608000C060A000C060C000C060E000C0800000C0802000C0804000C0806000C0808000C080A000C080C000C080E000C0A00000C0A02000C0A04000C0A06000C0A08000C0A0A000C0A0C000C0A0E000C0C00000C0C02000C0C04000C0C06000
310
C0C08000C0C0A000F0FBFF00A4A0A000808080000000FF0000FF000000FFFF00FF000000FF00FF00FFFF0000FFFFFF00FFFFFFFFFFFFFFFFFFFFFFFFFFFFFFFFFFFFFFFFFFFFFFFFFFFFFFFFFFFFFFFFFFFFFFFFFFFFFFFFFFFFFFFFFFFFFF0000FFFFFFFFFFFFFFFFFFFFFFFFFFFFFFFFFFFFFFFFFFFFFFFFFFFFFFFFFFFF
310
0000FFFFFFFFFFFFFFFFFFFFFFFFFFFFFFFFFFFFFFFFFFFFFFFFFFFFFFFFFFFF0000FFFFFFFFFFFFFFFFFFFFFFFFFFFFFFFFFFFFFFFFFFFFFFFFFFFFFFFFFF00FFFF00FFFFFFFFFFFFFFFFFFFFFFFFFFFFFFFFFFFFFFFFFFFFFFFFFFFFFFFF00FFFF00FFFFFFFFFFFFFFFFFFFFFFFFFFFFFFFFFFFFFFFFFFFFFFFFFFFFFFFF
310
00FF0000FFFFFFFFFFFFFFFFFFFFFFFFFFFFFFFFFFFFFFFFFFFFFFFFFFFFFFFF00FF0000FFFFFFFFFFFFFFFFFFFFFFFFFFFFFFFFFFFFFFFFFFFFFFFFFFFFFFFF00FF0000FFFFFFFFFFFFFFFFFFFFFFFFFFFFFFFFFFFFFFFFFFFFFFFFFFFFFFFF00000000FFFFFFFFFFFFFFFFFFFFFFFFFFFFFFFFFFFFFFFFFFFFFFFFFFFFFF
310
00FF00FF0000FFFFFFFFFFFFFFFFFFFFFFFFFFFFFFFFFFFFFFFFFFFFFFFFFFFF00FF00FF0000FFFFFFFFFFFFFFFFFFFFFFFFFFFFFFFFFFFFFFFFFFFFFFFFFFFF00FF00FF0000FFFFFFFFFFFFFFFFFFFFFFFFFFFFFFFFFFFFFFFFFFFFFFFFFFFF00FF00FF0000FFFFFFFFFFFFFFFFFFFFFFFFFFFFFFFFFFFFFFFFFFFFFFFFFF
310
FF00FF00FF0000FFFFFFFFFFFFFFFFFFFFFFFFFFFFFFFFFFFFFFFFFFFFFFFFFFFF0000FFFF0000FFFFFFFFFFFFFFFFFFFFFFFFFFFFFFFFFFFFFFFFFFFFFFFFFF00FF00FFFF00FF00FFFFFFFFFFFFFFFFFFFFFFFFFFFFFFFFFFFFFFFFFFFFFFFF00FF00FFFF00FF00FFFFFFFFFFFFFFFFFFFFFFFFFFFFFFFFFFFFFFFFFFFFFF
310
FF00FF00FFFFFF0000FFFFFFFFFFFFFFFFFFFFFFFFFFFFFFFFFFFFFFFFFFFFFFFF00FF00FFFFFF0000FFFFFFFFFFFFFFFFFFFFFFFFFFFFFFFFFFFFFFFFFFFFFFFF00FF00FFFFFF0000FFFFFFFFFFFFFFFFFFFFFFFFFFFFFFFFFFFFFFFFFFFFFFFF0000FFFFFFFF0000FFFFFFFFFFFFFFFFFFFFFFFFFFFFFFFFFFFFFFFFFFFF
310
FF00FF00FFFFFFFF00FF00FFFFFFFFFFFFFFFFFFFFFFFFFFFFFFFFFFFFFFFFFFFF00FF00FFFFFFFF00FF00FFFFFFFFFFFFFFFFFFFFFFFFFFFFFFFFFFFFFFFFFFFF00FF00FFFFFFFF00FF00FFFFFFFFFFFFFFFFFFFFFFFFFFFFFFFFFFFFFFFFFFFF00FF00FFFFFFFF00FF00FFFFFFFFFFFFFFFFFFFFFFFFFFFFFFFFFFFFFFFF
310
FFFF00FF00FFFFFFFFFF0000FFFFFFFFFFFFFFFFFFFFFFFFFFFFFFFFFFFFFFFFFFFF0000FFFFFFFFFFFF0000FFFFFFFFFFFFFFFFFFFFFFFFFFFFFFFFFFFFFFFFFF00FF00FFFFFFFFFFFF00FF00FFFFFFFFFFFFFFFFFFFFFFFFFFFFFFFFFFFFFFFF00FF00FFFFFFFFFFFF00FF00FFFFFFFFFFFFFFFFFFFFFFFFFFFFFFFFFFFF
310
FFFF000000FFFFFFFFFFFF000000FFFFFFFFFFFFFFFFFFFFFFFFFFFFFFFFFFFFFFFFFFFFFFFFFFFFFFFFFFFFFFFFFFFFFFFFFFFFFFFFFFFF
102
{BLKREFS
331
59D
102
}
  0
BLOCK_RECORD
  5
58B
330
1
100
AcDbSymbolTableRecord
100
AcDbBlockTableRecord
  2
AI9-BLK1
340
0
310
2800000020000000200000000100080000000000000400000000000000000000000000000000000000000000000080000080000000808000800000008000800080800000C0C0C000C0DCC000F0CAA6000020400000206000002080000020A0000020C0000020E00000400000004020000040400000406000004080000040A0
310
000040C0000040E00000600000006020000060400000606000006080000060A0000060C0000060E00000800000008020000080400000806000008080000080A0000080C0000080E00000A0000000A0200000A0400000A0600000A0800000A0A00000A0C00000A0E00000C0000000C0200000C0400000C0600000C0800000C0
310
A00000C0C00000C0E00000E0000000E0200000E0400000E0600000E0800000E0A00000E0C00000E0E00040000000400020004000400040006000400080004000A0004000C0004000E00040200000402020004020400040206000402080004020A0004020C0004020E000404000004040200040404000404060004040800040
310
40A0004040C0004040E00040600000406020004060400040606000406080004060A0004060C0004060E00040800000408020004080400040806000408080004080A0004080C0004080E00040A0000040A0200040A0400040A0600040A0800040A0A00040A0C00040A0E00040C0000040C0200040C0400040C0600040C08000
310
40C0A00040C0C00040C0E00040E0000040E0200040E0400040E0600040E0800040E0A00040E0C00040E0E00080000000800020008000400080006000800080008000A0008000C0008000E00080200000802020008020400080206000802080008020A0008020C0008020E00080400000804020008040400080406000804080
310
008040A0008040C0008040E00080600000806020008060400080606000806080008060A0008060C0008060E00080800000808020008080400080806000808080008080A0008080C0008080E00080A0000080A0200080A0400080A0600080A0800080A0A00080A0C00080A0E00080C0000080C0200080C0400080C0600080C0
310
800080C0A00080C0C00080C0E00080E0000080E0200080E0400080E0600080E0800080E0A00080E0C00080E0E000C0000000C0002000C0004000C0006000C0008000C000A000C000C000C000E000C0200000C0202000C0204000C0206000C0208000C020A000C020C000C020E000C0400000C0402000C0404000C0406000C0
310
408000C040A000C040C000C040E000C0600000C0602000C0604000C0606000C0608000C060A000C060C000C060E000C0800000C0802000C0804000C0806000C0808000C080A000C080C000C080E000C0A00000C0A02000C0A04000C0A06000C0A08000C0A0A000C0A0C000C0A0E000C0C00000C0C02000C0C04000C0C06000
310
C0C08000C0C0A000F0FBFF00A4A0A000808080000000FF0000FF000000FFFF00FF000000FF00FF00FFFF0000FFFFFF00FFFFFFFFFFFFFFFFFFFFFFFFFFFFFFFFFFFFFFFFFFFFFFFFFFFFFFFFFFFFFFFFFFFFFFFFFFFFFFFFFFFFFF00000000000000000000FFFFFFFFFFFFFFFFFFFFFFFFFFFFFFFFFFFFFFFFFFFF00FFFFFF
310
FFFFFFFFFF00FFFFFFFFFFFFFFFFFFFFFFFFFFFFFFFFFFFFFFFFFFFF00FFFFFFFFFFFFFFFF00FFFFFFFFFFFFFFFFFFFFFFFFFFFFFFFFFFFFFFFFFFFF00FFFFFFFFFFFFFFFF00FFFFFFFFFFFFFFFFFFFFFFFFFFFFFFFFFFFFFFFFFFFF00FF0000000000000000FFFFFFFFFFFFFFFFFFFFFFFFFFFFFFFFFFFFFFFFFFFF00FF00
310
FFFFFFFFFFFFFFFFFFFFFFFFFFFFFFFFFFFFFFFFFFFFFFFFFFFFFFFFFF00FF00FFFFFFFFFFFFFFFFFFFFFFFFFFFFFFFFFFFFFFFFFFFFFFFFFFFFFFFFFF00FF00FFFFFFFFFFFFFFFFFFFFFFFFFFFFFFFFFFFFFFFFFFFFFFFFFFFFFFFFFF00FF00FFFFFFFFFFFFFFFFFFFFFFFFFFFFFFFFFFFFFFFFFFFFFFFFFFFFFFFFFF00FF
310
00FFFFFFFFFFFFFFFFFFFFFFFFFFFFFFFFFFFFFFFFFFFFFFFFFFFFFFFFFF00FF00FFFFFFFFFFFFFFFFFFFFFFFFFFFFFFFFFFFFFFFFFFFFFFFFFFFFFFFFFF00FF00FFFFFFFFFFFFFFFFFFFFFFFFFFFFFFFFFFFFFFFFFFFFFFFFFFFFFFFFFF00FF00FFFFFFFFFFFFFFFFFFFFFFFFFFFFFFFFFFFFFFFFFFFFFFFFFFFFFFFFFF00
310
FF00000000000000FFFFFFFFFFFFFFFFFFFFFFFFFFFFFFFFFFFFFFFFFFFFFF00FFFFFFFFFFFFFF00FFFFFFFFFFFFFFFFFFFFFFFFFFFFFFFFFFFFFFFFFFFFFF00FFFFFFFFFFFFFF00FFFFFFFFFFFFFFFFFFFFFFFFFFFFFFFFFFFFFFFFFFFFFF00FFFFFFFFFFFFFF00FFFFFFFFFFFFFFFFFFFFFFFFFFFFFFFFFFFFFFFFFFFFFF
310
00FF00000000000000FFFFFFFFFFFFFFFFFFFFFFFFFFFFFFFFFFFFFFFFFFFFFF00FF00FFFFFFFFFFFFFFFFFFFFFFFFFFFFFFFFFFFFFFFFFFFFFFFFFFFFFFFFFF00FF00FFFFFFFFFFFFFFFFFFFFFFFFFFFFFFFFFFFFFFFFFFFFFFFFFFFFFFFFFF00FF00FFFFFFFFFFFFFFFFFFFFFFFFFFFFFFFFFFFFFFFFFFFFFFFFFFFFFFFF
310
FF00FF00FFFFFFFFFFFFFFFFFFFFFFFFFFFFFFFFFFFFFFFFFFFFFFFFFFFFFFFFFF00FF00FFFFFFFFFFFFFFFFFFFFFFFFFFFFFFFFFFFFFFFFFFFFFFFFFFFFFFFFFF00FF00FFFFFFFFFFFFFFFFFFFFFFFFFFFFFFFFFFFFFFFFFFFFFFFFFFFFFFFFFF00FF00FFFFFFFFFFFFFFFFFFFFFFFFFFFFFFFFFFFFFFFFFFFFFFFFFFFFFF
310
FFFF00FF0000000000000000FFFFFFFFFFFFFFFFFFFFFFFFFFFFFFFFFFFFFFFFFFFF00FFFFFFFFFFFFFFFF00FFFFFFFFFFFFFFFFFFFFFFFFFFFFFFFFFFFFFFFFFFFF00FFFFFFFFFFFFFFFF00FFFFFFFFFFFFFFFFFFFFFFFFFFFFFFFFFFFFFFFFFFFF00FFFFFFFFFFFFFFFF00FFFFFFFFFFFFFFFFFFFFFFFFFFFFFFFFFFFFFF
310
FFFFFF00000000000000000000FFFFFFFFFFFFFFFFFFFFFFFFFFFFFFFFFFFFFFFFFFFFFFFFFFFFFFFFFFFFFFFFFFFFFFFFFFFFFFFFFFFFFF
102
{BLKREFS
331
59E
102
}
  0
BLOCK_RECORD
  5
590
330
1
100
AcDbSymbolTableRecord
100
AcDbBlockTableRecord
  2
HD_LLC_logo_OT5
340
0
310
2800000020000000200000000100080000000000000400000000000000000000000000000000000000000000000080000080000000808000800000008000800080800000C0C0C000C0DCC000F0CAA6000020400000206000002080000020A0000020C0000020E00000400000004020000040400000406000004080000040A0
310
000040C0000040E00000600000006020000060400000606000006080000060A0000060C0000060E00000800000008020000080400000806000008080000080A0000080C0000080E00000A0000000A0200000A0400000A0600000A0800000A0A00000A0C00000A0E00000C0000000C0200000C0400000C0600000C0800000C0
310
A00000C0C00000C0E00000E0000000E0200000E0400000E0600000E0800000E0A00000E0C00000E0E00040000000400020004000400040006000400080004000A0004000C0004000E00040200000402020004020400040206000402080004020A0004020C0004020E000404000004040200040404000404060004040800040
310
40A0004040C0004040E00040600000406020004060400040606000406080004060A0004060C0004060E00040800000408020004080400040806000408080004080A0004080C0004080E00040A0000040A0200040A0400040A0600040A0800040A0A00040A0C00040A0E00040C0000040C0200040C0400040C0600040C08000
310
40C0A00040C0C00040C0E00040E0000040E0200040E0400040E0600040E0800040E0A00040E0C00040E0E00080000000800020008000400080006000800080008000A0008000C0008000E00080200000802020008020400080206000802080008020A0008020C0008020E00080400000804020008040400080406000804080
310
008040A0008040C0008040E00080600000806020008060400080606000806080008060A0008060C0008060E00080800000808020008080400080806000808080008080A0008080C0008080E00080A0000080A0200080A0400080A0600080A0800080A0A00080A0C00080A0E00080C0000080C0200080C0400080C0600080C0
310
800080C0A00080C0C00080C0E00080E0000080E0200080E0400080E0600080E0800080E0A00080E0C00080E0E000C0000000C0002000C0004000C0006000C0008000C000A000C000C000C000E000C0200000C0202000C0204000C0206000C0208000C020A000C020C000C020E000C0400000C0402000C0404000C0406000C0
310
408000C040A000C040C000C040E000C0600000C0602000C0604000C0606000C0608000C060A000C060C000C060E000C0800000C0802000C0804000C0806000C0808000C080A000C080C000C080E000C0A00000C0A02000C0A04000C0A06000C0A08000C0A0A000C0A0C000C0A0E000C0C00000C0C02000C0C04000C0C06000
310
C0C08000C0C0A000F0FBFF00A4A0A000808080000000FF0000FF000000FFFF00FF000000FF00FF00FFFF0000FFFFFF00FFFFFFFFFFFFFFFFFFFFFFFFFFFFFFFFFFFFFFFFFFFFFFFFFFFFFFFFFFFFFFFFFFFFFFFFFFFFFFFFFFFFFFFFFFFFFFFFFFFFFFFFFFFFFFFFFFFFFFFFFFFFFFFFFFFFFFFFFFFFFFFFFFFFFFFFFFFFFF
310
FFFFFFFFFFFFFFFFFFFFFFFFFFFFFFFFFFFFFFFFFFFFFFFFFFFFFFFFFFFFFFFFFFFFFFFFFFFFFFFFFFFFFFFFFFFFFFFFFFFFFFFFFFFFFFFFFFFFFFFFFFFFFFFFFFFFFFFFFFFFFFFFFFFFFFFFFFFFFFFFFFFFFFFFFFFFFFFFFFFFFFFFFFFFFFFFFFFFFFFFFFFFFFFFFFFFFFFFFFFFFFFFFFFFFFFFFFFFFFFFFFFFFFFFFFFFFF
310
FFFFFFFFFFFFFFFFFFFFFFFFFFFFFFFFFFFFFFFFFFFFFFFFFFFFFFFFFFFFFFFFFFFFFFFFFFFFFFFFFFFFFFFFFFFFFFFFFFFFFFFFFFFFFFFFFFFFFFFFFFFFFFFFFFFFFFFFFFFFFFFFFFFFFFFFFFFFFFFFFFFFFFFFFFFFFFFFFFFFFFFFFFFFFFFFFFFFFFFFFFFFFFFFFFFFFFFFFFFFFFFFFFFFFFFFFFFFFFFFFFFFFFFFFFFFFF
310
FFFFFFFFFFFFFFFFFFFFFFFFFFFFFFFFFFFFFFFFFFFFFFFFFFFFFFFFFFFFFFFFFFFFFFFFFFFFFFFFFFFFFFFFFFFFFFFFFFFFFFFF0000000000000000000000000000000000000000000000000000000000FFFFFF0000000000000000000000000000000000FFFFFFFFFFFFFFFFFFFF0000FFFFFF0000000000000000000000
310
00000000000000FFFFFFFFFFFFFFFFFFFF0000FFFF000000000000000000000000000000000000FFFFFF00000000FFFFFF0000FFFF00FFFFFFFFFFFF00FFFFFF00FFFFFFFFFF00FFFFFF0000000000FFFF0000FFFF00FFFFFFFFFFFF00FFFFFF00FFFFFFFFFF00FFFFFF00FFFF0000FFFF0000FFFF00FFFFFFFFFFFF00FFFF
310
00FFFFFFFFFFFF00FFFFFF00FFFF0000FFFF0000FFFF0000000000FFFF00000000FFFFFF00000000FFFFFF00000000FFFFFF0000FFFFFFFFFFFF00FFFFFFFFFFFFFFFFFF00FFFFFFFFFFFFFFFFFFFFFFFFFF0000FFFFFFFFFFFF00FFFFFFFFFFFFFFFFFF00FFFFFFFFFFFFFFFFFFFFFFFFFF0000FFFFFFFFFFFF00FFFFFFFF
310
FFFFFFFFFF00FFFFFFFFFFFFFFFFFFFFFFFF0000FFFFFF0000000000FFFF00000000FFFFFF0000000000000000000000000000FFFFFFFF00FFFFFFFFFFFF00FFFF00FFFFFFFFFFFF00FFFFFFFFFFFFFFFFFFFFFFFFFFFF00FFFFFFFFFFFF00FFFFFF00FFFFFFFFFF00FFFFFFFFFFFFFFFFFFFFFFFFFFFF0000000000000000
310
FFFFFF00000000000000FFFFFFFFFFFFFFFFFFFFFFFFFFFFFFFFFFFFFFFFFFFFFFFFFFFFFFFFFFFFFFFFFFFFFFFFFFFFFFFFFFFFFFFFFFFFFFFFFFFFFFFFFFFFFFFFFFFFFFFFFFFFFFFFFFFFFFFFFFFFFFFFFFFFFFFFFFFFFFFFFFFFFFFFFFFFFFFFFFFFFFFFFFFFFFFFFFFFFFFFFFFFFFFFFFFFFFFFFFFFFFFFFFFFFFFFFF
310
FFFFFFFFFFFFFFFFFFFFFFFFFFFFFFFFFFFFFFFFFFFFFFFFFFFFFFFFFFFFFFFFFFFFFFFFFFFFFFFFFFFFFFFFFFFFFFFFFFFFFFFFFFFFFFFF
102
{BLKREFS
331
5B6
102
}
  0
BLOCK_RECORD
  5
5B5
330
1
100
AcDbSymbolTableRecord
100
AcDbBlockTableRecord
  2
HD logo-new
340
0
310
2800000020000000200000000100080000000000000400000000000000000000000000000000000000000000000080000080000000808000800000008000800080800000C0C0C000C0DCC000F0CAA6000020400000206000002080000020A0000020C0000020E00000400000004020000040400000406000004080000040A0
310
000040C0000040E00000600000006020000060400000606000006080000060A0000060C0000060E00000800000008020000080400000806000008080000080A0000080C0000080E00000A0000000A0200000A0400000A0600000A0800000A0A00000A0C00000A0E00000C0000000C0200000C0400000C0600000C0800000C0
310
A00000C0C00000C0E00000E0000000E0200000E0400000E0600000E0800000E0A00000E0C00000E0E00040000000400020004000400040006000400080004000A0004000C0004000E00040200000402020004020400040206000402080004020A0004020C0004020E000404000004040200040404000404060004040800040
310
40A0004040C0004040E00040600000406020004060400040606000406080004060A0004060C0004060E00040800000408020004080400040806000408080004080A0004080C0004080E00040A0000040A0200040A0400040A0600040A0800040A0A00040A0C00040A0E00040C0000040C0200040C0400040C0600040C08000
310
40C0A00040C0C00040C0E00040E0000040E0200040E0400040E0600040E0800040E0A00040E0C00040E0E00080000000800020008000400080006000800080008000A0008000C0008000E00080200000802020008020400080206000802080008020A0008020C0008020E00080400000804020008040400080406000804080
310
008040A0008040C0008040E00080600000806020008060400080606000806080008060A0008060C0008060E00080800000808020008080400080806000808080008080A0008080C0008080E00080A0000080A0200080A0400080A0600080A0800080A0A00080A0C00080A0E00080C0000080C0200080C0400080C0600080C0
310
800080C0A00080C0C00080C0E00080E0000080E0200080E0400080E0600080E0800080E0A00080E0C00080E0E000C0000000C0002000C0004000C0006000C0008000C000A000C000C000C000E000C0200000C0202000C0204000C0206000C0208000C020A000C020C000C020E000C0400000C0402000C0404000C0406000C0
310
408000C040A000C040C000C040E000C0600000C0602000C0604000C0606000C0608000C060A000C060C000C060E000C0800000C0802000C0804000C0806000C0808000C080A000C080C000C080E000C0A00000C0A02000C0A04000C0A06000C0A08000C0A0A000C0A0C000C0A0E000C0C00000C0C02000C0C04000C0C06000
310
C0C08000C0C0A000F0FBFF00A4A0A000808080000000FF0000FF000000FFFF00FF000000FF00FF00FFFF0000FFFFFF00FFFFFFFFFFFFFFFFFFFFFFFFFFFFFFFFFFFFFFFFFFFFFFFFFFFFFFFFFFFFFFFFFFFFFFFFFFFFFFFFFFFFFFFFFFFFFFFFFFFFFFFFFFFFFFFFFFFFFFFFFFFFFFFFFFFFFFFFFFFFFFFFFFFFFFFFFFFFFF
310
FFFFFFFFFFFFFFFFFFFFFFFFFFFFFFFFFFFFFFFFFFFFFFFFFFFFFFFFFFFFFFFFFFFFFFFFFFFFFFFFFFFFFFFFFFFFFFFFFFFFFFFFFFFFFFFFFFFFFFFFFFFFFFFFFFFFFFFFFFFFFFFFFFFFFFFFFFFFFFFFFFFFFFFFFFFFFFFFFFFFFFFFFFFFFFFFFFFFFFFFFFFFFFFFFFFFFFFFFFFFFFFFFFFFFFFFFFFFFFFFFFFFFFFFFFFFFF
310
FFFFFFFFFFFFFFFFFFFFFFFFFFFFFFFFFFFFFFFFFFFFFFFFFFFFFFFFFFFFFFFFFFFFFFFFFFFFFFFFFFFFFFFFFFFFFFFFFFFFFFFFFFFFFFFFFFFFFFFFFFFFFFFFFFFFFFFFFFFFFFFFFFFFFFFFFFFFFFFFFFFFFFFFFFFFFFFFFFFFFFFFFFFFFFFFFFFFFFFFFFFFFFFFFFFFFFFFFFFFFFFFFFFFFFFFFFFFFFFFFFFFFFFFFFFFFF
310
FFFFFFFFFFFFFFFFFFFFFFFFFFFFFFFFFFFFFFFFFFFFFFFFFFFFFFFFFFFFFFFFFFFFFFFFFFFFFFFFFFFFFFFFFFFFFFFFFFFFFFFF0000000000000000000000000000000000000000000000000000000000FFFFFF0000000000000000000000000000000000FFFFFFFFFFFFFFFFFFFF0000FFFFFF0000000000000000000000
310
00000000000000FFFFFFFFFFFFFFFFFFFF0000FFFF000000000000000000000000000000000000FFFFFF00000000FFFFFF0000FFFF00FFFFFFFFFFFF00FFFFFF00FFFFFFFFFF00FFFFFF0000000000FFFF0000FFFF00FFFFFFFFFFFF00FFFFFF00FFFFFFFFFF00FFFFFF00FFFF0000FFFF0000FFFF00FFFFFFFFFFFF00FFFF
310
00FFFFFFFFFFFF00FFFFFF00FFFF0000FFFF0000FFFF0000000000FFFF00000000FFFFFF00000000FFFFFF00000000FFFFFF0000FFFFFFFFFFFF00FFFFFFFFFFFFFFFFFF00FFFFFFFFFFFFFFFFFFFFFFFFFF0000FFFFFFFFFFFF00FFFFFFFFFFFFFFFFFF00FFFFFFFFFFFFFFFFFFFFFFFFFF0000FFFFFFFFFFFF00FFFFFFFF
310
FFFFFFFFFF00FFFFFFFFFFFFFFFFFFFFFFFF0000FFFFFF0000000000FFFF00000000FFFFFF0000000000000000000000000000FFFFFFFF00FFFFFFFFFFFF00FFFF00FFFFFFFFFFFF00FFFFFFFFFFFFFFFFFFFFFFFFFFFF00FFFFFFFFFFFF00FFFFFF00FFFFFFFFFF00FFFFFFFFFFFFFFFFFFFFFFFFFFFF0000000000000000
310
FFFFFF00000000000000FFFFFFFFFFFFFFFFFFFFFFFFFFFFFFFFFFFFFFFFFFFFFFFFFFFFFFFFFFFFFFFFFFFFFFFFFFFFFFFFFFFFFFFFFFFFFFFFFFFFFFFFFFFFFFFFFFFFFFFFFFFFFFFFFFFFFFFFFFFFFFFFFFFFFFFFFFFFFFFFFFFFFFFFFFFFFFFFFFFFFFFFFFFFFFFFFFFFFFFFFFFFFFFFFFFFFFFFFFFFFFFFFFFFFFFFFF
310
FFFFFFFFFFFFFFFFFFFFFFFFFFFFFFFFFFFFFFFFFFFFFFFFFFFFFFFFFFFFFFFFFFFFFFFFFFFFFFFFFFFFFFFFFFFFFFFFFFFFFFFFFFFFFFFF
102
{BLKREFS
331
5BB
331
5BF
102
}
  0
BLOCK_RECORD
  5
5C1
330
1
100
AcDbSymbolTableRecord
100
AcDbBlockTableRecord
  2
HD LLC
340
0
310
2800000020000000200000000100080000000000000400000000000000000000000000000000000000000000000080000080000000808000800000008000800080800000C0C0C000C0DCC000F0CAA6000020400000206000002080000020A0000020C0000020E00000400000004020000040400000406000004080000040A0
310
000040C0000040E00000600000006020000060400000606000006080000060A0000060C0000060E00000800000008020000080400000806000008080000080A0000080C0000080E00000A0000000A0200000A0400000A0600000A0800000A0A00000A0C00000A0E00000C0000000C0200000C0400000C0600000C0800000C0
310
A00000C0C00000C0E00000E0000000E0200000E0400000E0600000E0800000E0A00000E0C00000E0E00040000000400020004000400040006000400080004000A0004000C0004000E00040200000402020004020400040206000402080004020A0004020C0004020E000404000004040200040404000404060004040800040
310
40A0004040C0004040E00040600000406020004060400040606000406080004060A0004060C0004060E00040800000408020004080400040806000408080004080A0004080C0004080E00040A0000040A0200040A0400040A0600040A0800040A0A00040A0C00040A0E00040C0000040C0200040C0400040C0600040C08000
310
40C0A00040C0C00040C0E00040E0000040E0200040E0400040E0600040E0800040E0A00040E0C00040E0E00080000000800020008000400080006000800080008000A0008000C0008000E00080200000802020008020400080206000802080008020A0008020C0008020E00080400000804020008040400080406000804080
310
008040A0008040C0008040E00080600000806020008060400080606000806080008060A0008060C0008060E00080800000808020008080400080806000808080008080A0008080C0008080E00080A0000080A0200080A0400080A0600080A0800080A0A00080A0C00080A0E00080C0000080C0200080C0400080C0600080C0
310
800080C0A00080C0C00080C0E00080E0000080E0200080E0400080E0600080E0800080E0A00080E0C00080E0E000C0000000C0002000C0004000C0006000C0008000C000A000C000C000C000E000C0200000C0202000C0204000C0206000C0208000C020A000C020C000C020E000C0400000C0402000C0404000C0406000C0
310
408000C040A000C040C000C040E000C0600000C0602000C0604000C0606000C0608000C060A000C060C000C060E000C0800000C0802000C0804000C0806000C0808000C080A000C080C000C080E000C0A00000C0A02000C0A04000C0A06000C0A08000C0A0A000C0A0C000C0A0E000C0C00000C0C02000C0C04000C0C06000
310
C0C08000C0C0A000F0FBFF00A4A0A000808080000000FF0000FF000000FFFF00FF000000FF00FF00FFFF0000FFFFFF00FFFFFFFFFFFFFFFFFFFFFFFFFFFFFFFFFFFFFFFFFFFFFFFFFFFFFFFFFFFFFFFFFFFFFFFFFFFFFFFFFFFFFFFFFFFFFFFFFFFFFFFFFFFFFFFFFFFFFFFFFFFFFFFFFFFFFFFFFFFFFFFFFFFFFFFFFFFFFF
310
FFFFFFFFFFFFFFFFFFFFFFFFFFFFFFFFFFFFFFFFFFFFFFFFFFFFFFFFFFFFFFFFFFFFFFFFFFFFFFFFFFFFFFFFFFFFFFFFFFFFFFFFFFFFFFFFFFFFFFFFFFFFFFFFFFFFFFFFFFFFFFFFFFFFFFFFFFFFFFFFFFFFFFFFFFFFFFFFFFFFFFFFFFFFFFFFFFFFFFFFFFFFFFFFFFFFFFFFFFFFFFFFFFFFFFFFFFFFFFFFFFFFFFFFFFFFFF
310
FFFFFFFFFFFFFFFFFFFFFFFFFFFFFFFFFFFFFFFFFFFFFFFFFFFFFFFFFFFFFFFFFFFFFFFFFFFFFFFFFFFFFFFFFFFFFFFFFFFFFFFFFFFFFFFFFFFFFFFFFFFFFFFFFFFFFFFFFFFFFFFFFFFFFFFFFFFFFFFFFFFFFFFFFFFFFFFFFFFFFFFFFFFFFFFFFFFFFFFFFFFFFFFFFFFFFFFFFFFFFFFFFFFFFFFFFFFFFFFFFFFFFFFFFFFFFF
310
FFFFFFFFFFFFFFFFFFFFFFFFFFFFFFFFFFFFFFFFFFFFFFFFFFFFFFFFFFFFFFFFFFFFFFFFFFFFFFFFFFFFFFFFFFFFFFFFFFFFFFFFFFFFFFFFFFFFFFFFFFFFFFFFFFFFFFFFFFFFFFFFFFFFFFFFFFFFFFFFFFFFFFFFFFFFFFFFFFFFFFFFFFFFFFFFFFFFFFFFFFFFFFFFFFFFFFFFFFFFFFFFFFFFFFFFFFFFFFFFFFFFFFFFFFFF00
310
000000000000000000FFFFFFFFFFFFFFFFFFFFFFFFFFFFFFFFFFFFFFFFFFFF00000000000000000000FFFFFFFFFFFFFFFFFFFFFFFFFFFFFFFFFFFFFFFFFFFF00000000000000000000FFFFFFFFFFFFFFFFFFFFFFFFFFFFFFFFFFFFFFFFFFFF00000000000000000000FFFFFFFFFFFFFFFFFFFFFFFFFFFFFFFFFFFFFFFFFFFF
310
FFFFFFFFFFFFFFFFFFFFFFFFFFFFFFFFFFFFFFFFFFFFFFFFFFFFFFFFFFFFFFFFFFFFFFFFFFFFFFFFFFFFFFFFFFFFFFFFFFFFFFFFFFFFFFFFFFFFFFFFFFFFFFFFFFFFFFFFFFFFFFFFFFFFFFFFFFFFFFFFFFFFFFFFFFFFFFFFFFFFFFFFFFFFFFFFFFFFFFFFFFFFFFFFFFFFFFFFFFFFFFFFFFFFFFFFFFFFFFFFFFFFFFFFFFFFFF
310
FFFFFFFFFFFFFFFFFFFFFFFFFFFFFFFFFFFFFFFFFFFFFFFFFFFFFFFFFFFFFFFFFFFFFFFFFFFFFFFFFFFFFFFFFFFFFFFFFFFFFFFFFFFFFFFFFFFFFFFFFFFFFFFFFFFFFFFFFFFFFFFFFFFFFFFFFFFFFFFFFFFFFFFFFFFFFFFFFFFFFFFFFFFFFFFFFFFFFFFFFFFFFFFFFFFFFFFFFFFFFFFFFFFFFFFFFFFFFFFFFFFFFFFFFFFFFF
310
FFFFFFFFFFFFFFFFFFFFFFFFFFFFFFFFFFFFFFFFFFFFFFFFFFFFFFFFFFFFFFFFFFFFFFFFFFFFFFFFFFFFFFFFFFFFFFFFFFFFFFFFFFFFFFFFFFFFFFFFFFFFFFFFFFFFFFFFFFFFFFFFFFFFFFFFFFFFFFFFFFFFFFFFFFFFFFFFFFFFFFFFFFFFFFFFFFFFFFFFFFFFFFFFFFFFFFFFFFFFFFFFFFFFFFFFFFFFFFFFFFFFFFFFFFFFFF
310
FFFFFFFFFFFFFFFFFFFFFFFFFFFFFFFFFFFFFFFFFFFFFFFFFFFFFFFFFFFFFFFFFFFFFFFFFFFFFFFFFFFFFFFFFFFFFFFFFFFFFFFFFFFFFFFF
102
{BLKREFS
331
5C6
331
5CA
102
}
  0
ENDTAB
  0
ENDSEC
  0
SECTION
  2
BLOCKS
  0
BLOCK
  5
20
330
1F
100
AcDbEntity
  8
0
100
AcDbBlockBegin
  2
*Model_Space
 70
     0
 10
0.0
 20
0.0
 30
0.0
  3
*Model_Space
  1

  0
ENDBLK
  5
21
330
1F
100
AcDbEntity
  8
0
100
AcDbBlockEnd
  0
BLOCK
  5
1C
330
1B
100
AcDbEntity
 67
     1
  8
0
100
AcDbBlockBegin
  2
*Paper_Space
 70
     0
 10
0.0
 20
0.0
 30
0.0
  3
*Paper_Space
  1

  0
ENDBLK
  5
1D
330
1B
100
AcDbEntity
 67
     1
  8
0
100
AcDbBlockEnd
  0
BLOCK
  5
24
330
23
100
AcDbEntity
  8
0
100
AcDbBlockBegin
  2
*Paper_Space0
 70
     0
 10
0.0
 20
0.0
 30
0.0
  3
*Paper_Space0
  1

  0
ENDBLK
  5
25
330
23
100
AcDbEntity
  8
0
100
AcDbBlockEnd
  0
BLOCK
  5
6A
330
2B
100
AcDbEntity
  8
0
100
AcDbBlockBegin
  2
BEARING WG 20 1423134-10
 70
     0
 10
0.0
 20
0.0
 30
0.0
  3
BEARING WG 20 1423134-10
  1

  0
LINE
  5
2C
330
2B
100
AcDbEntity
  8
BEARING_WAVE_GEN
100
AcDbLine
 10
-0.5715000000000146
 20
-23.31719999999996
 30
0.0
 11
-2.781865966445023
 21
-23.31720000000002
 31
0.0
1001
ACAD
1000
ASC_BOUNDS
1002
{
1070
    19
1005
0
1002
}
  0
LINE
  5
2D
330
2B
100
AcDbEntity
  8
BEARING_WAVE_GEN
100
AcDbLine
 10
-0.1270000000000664
 20
-19.07539999999998
 30
0.0
 11
-2.788930119562109
 21
-19.07539999999998
 31
0.0
1001
ACAD
1000
ASC_BOUNDS
1002
{
1070
    19
1005
0
1002
}
  0
CIRCLE
  5
2E
330
2B
100
AcDbEntity
  8
BEARING_WAVE_GEN
100
AcDbCircle
 10
-4.063999999999962
 20
-21.18359999999998
 30
0.0
 40
2.381249999999999
  0
LINE
  5
2F
330
2B
100
AcDbEntity
  8
BEARING_WAVE_GEN
100
AcDbLine
 10
-0.9524999999999863
 20
-24.53640000000003
 30
0.0
 11
-7.175500000000057
 21
-24.53640000000003
 31
0.0
1001
ACAD
1000
ASC_BOUNDS
1002
{
1070
    19
1005
0
1002
}
  0
LINE
  5
30
330
2B
100
AcDbEntity
  8
BEARING_WAVE_GEN
100
AcDbLine
 10
-0.1270000000000664
 20
-17.77999999999996
 30
0.0
 11
-8.000999999999976
 21
-17.77999999999996
 31
0.0
  0
LINE
  5
31
330
2B
100
AcDbEntity
  8
SEPARATOR_BEARING
100
AcDbLine
 10
-1.949449999999956
 20
-19.49449999999998
 30
0.0
 11
-2.385520702391545
 21
-19.49449999999998
 31
0.0
  0
LINE
  5
32
330
2B
100
AcDbEntity
  8
SEPARATOR_BEARING
100
AcDbLine
 10
-1.949449999999956
 20
-22.79650000000001
 30
0.0
 11
-2.312170912303372
 21
-22.79650000000001
 31
0.0
  0
LINE
  5
33
330
2B
100
AcDbEntity
  8
BEARING_WAVE_GEN
100
AcDbLine
 10
-7.683500000000094
 20
-19.49449999999998
 30
0.0
 11
-7.683500000000094
 21
-19.07539999999998
 31
0.0
  0
LINE
  5
34
330
2B
100
AcDbEntity
  8
BEARING_WAVE_GEN
100
AcDbLine
 10
-5.346134033554903
 20
-23.31720000000002
 30
0.0
 11
-7.556500000000027
 21
-23.31719999999996
 31
0.0
1001
ACAD
1000
ASC_BOUNDS
1002
{
1070
    19
1005
0
1002
}
  0
LINE
  5
35
330
2B
100
AcDbEntity
  8
SEPARATOR_BEARING
100
AcDbLine
 10
-5.742479297608382
 20
-19.49449999999998
 30
0.0
 11
-7.715249999999969
 21
-19.49449999999998
 31
0.0
1001
ACAD
1000
ASC_BOUNDS
1002
{
1070
    19
1005
0
1002
}
  0
LINE
  5
36
330
2B
100
AcDbEntity
  8
SEPARATOR_BEARING
100
AcDbLine
 10
-5.815829087696557
 20
-22.79650000000001
 30
0.0
 11
-7.715249999999969
 21
-22.79650000000001
 31
0.0
1001
ACAD
1000
ASC_BOUNDS
1002
{
1070
    19
1005
0
1002
}
  0
ARC
  5
37
330
2B
100
AcDbEntity
  8
BEARING_WAVE_GEN
100
AcDbCircle
 10
-7.556500000000027
 20
-23.44419999999995
 30
0.0
 40
0.127
100
AcDbArc
 50
90.0
 51
180.0
1001
ACAD
1000
ASC_BOUNDS
1002
{
1070
    19
1005
0
1002
}
  0
ARC
  5
38
330
2B
100
AcDbEntity
  8
BEARING_WAVE_GEN
100
AcDbCircle
 10
-7.175500000000057
 20
-24.02840000000003
 30
0.0
 40
0.508
100
AcDbArc
 50
180.0000000000006
 51
270.0
1001
ACAD
1000
ASC_BOUNDS
1002
{
1070
    19
1005
0
1002
}
  0
LINE
  5
39
330
2B
100
AcDbEntity
  8
BEARING_WAVE_GEN
100
AcDbLine
 10
-7.68349999999998
 20
-24.02840000000003
 30
0.0
 11
-7.68349999999998
 21
-22.79650000000001
 31
0.0
1001
ACAD
1000
ASC_BOUNDS
1002
{
1070
    19
1005
0
1002
}
  0
LINE
  5
3A
330
2B
100
AcDbEntity
  8
SEPARATOR_BEARING
100
AcDbLine
 10
-6.445249999999987
 20
-19.49449999999998
 30
0.0
 11
-6.445249999999987
 21
-22.79650000000001
 31
0.0
1001
ACAD
1000
ASC_BOUNDS
1002
{
1070
    19
1005
0
1002
}
  0
LINE
  5
3B
330
2B
100
AcDbEntity
  8
SEPARATOR_BEARING
100
AcDbLine
 10
-7.715249999999969
 20
-19.49449999999998
 30
0.0
 11
-7.715249999999969
 21
-22.79650000000001
 31
0.0
1001
ACAD
1000
ASC_BOUNDS
1002
{
1070
    19
1005
0
1002
}
  0
ARC
  5
3C
330
2B
100
AcDbEntity
  8
BEARING_WAVE_GEN
100
AcDbCircle
 10
-4.063999999999962
 20
-21.18359999999998
 30
0.0
 40
2.489199999999998
100
AcDbArc
 50
238.9972808661275
 51
301.0027191338719
1001
ACAD
1000
ASC_BOUNDS
1002
{
1070
    19
1005
0
1002
}
  0
LINE
  5
3D
330
2B
100
AcDbEntity
  8
BEARING_WAVE_GEN
100
AcDbLine
 10
-5.339069880437931
 20
-19.07539999999998
 30
0.0
 11
-8.000999999999976
 21
-19.07539999999998
 31
0.0
1001
ACAD
1000
ASC_BOUNDS
1002
{
1070
    19
1005
0
1002
}
  0
ARC
  5
3E
330
2B
100
AcDbEntity
  8
BEARING_WAVE_GEN
100
AcDbCircle
 10
-8.000999999999976
 20
-17.90699999999999
 30
0.0
 40
0.127
100
AcDbArc
 50
90.0
 51
180.0
1001
ACAD
1000
ASC_BOUNDS
1002
{
1070
    19
1005
0
1002
}
  0
ARC
  5
3F
330
2B
100
AcDbEntity
  8
BEARING_WAVE_GEN
100
AcDbCircle
 10
-8.000999999999976
 20
-18.94839999999996
 30
0.0
 40
0.127
100
AcDbArc
 50
180.0
 51
270.0
  0
ARC
  5
40
330
2B
100
AcDbEntity
  8
BEARING_WAVE_GEN
100
AcDbCircle
 10
-8.000999999999976
 20
-18.94839999999996
 30
0.0
 40
0.127
100
AcDbArc
 50
179.999999999999
 51
270.0
1001
ACAD
1000
ASC_BOUNDS
1002
{
1070
    19
1005
0
1002
}
  0
LINE
  5
41
330
2B
100
AcDbEntity
  8
BEARING_WAVE_GEN
100
AcDbLine
 10
-8.127999999999929
 20
-17.90699999999999
 30
0.0
 11
-8.127999999999929
 21
-18.94839999999996
 31
0.0
1001
ACAD
1000
ASC_BOUNDS
1002
{
1070
    19
1005
0
1002
}
  0
ARC
  5
42
330
2B
100
AcDbEntity
  8
BEARING_WAVE_GEN
100
AcDbCircle
 10
-4.063999999999962
 20
-21.18359999999998
 30
0.0
 40
2.463799999999999
100
AcDbArc
 50
58.83384391120044
 51
121.1661560887995
1001
ACAD
1000
ASC_BOUNDS
1002
{
1070
    19
1005
0
1002
}
  0
LINE
  5
43
330
2B
100
AcDbEntity
  8
BEARING_WAVE_GEN
100
AcDbLine
 10
-0.4444999999999484
 20
-24.02840000000003
 30
0.0
 11
-0.4445000000000621
 21
-19.07539999999998
 31
0.0
1001
ACAD
1000
ASC_BOUNDS
1002
{
1070
    19
1005
0
1002
}
  0
ARC
  5
44
330
2B
100
AcDbEntity
  8
BEARING_WAVE_GEN
100
AcDbCircle
 10
-0.5715000000000146
 20
-23.44419999999995
 30
0.0
 40
0.127
100
AcDbArc
 50
0.0
 51
90.0
1001
ACAD
1000
ASC_BOUNDS
1002
{
1070
    19
1005
0
1002
}
  0
ARC
  5
45
330
2B
100
AcDbEntity
  8
BEARING_WAVE_GEN
100
AcDbCircle
 10
-0.9524999999999863
 20
-24.02840000000003
 30
0.0
 40
0.508
100
AcDbArc
 50
270.0
 51
0.0
1001
ACAD
1000
ASC_BOUNDS
1002
{
1070
    19
1005
0
1002
}
  0
LINE
  5
46
330
2B
100
AcDbEntity
  8
SEPARATOR_BEARING
100
AcDbLine
 10
-1.949449999999956
 20
-20.0885977808242
 30
0.0
 11
-1.949449999999956
 21
-19.49449999999998
 31
0.0
  0
LINE
  5
47
330
2B
100
AcDbEntity
  8
SEPARATOR_BEARING
100
AcDbLine
 10
-1.949449999999956
 20
-22.27860221917578
 30
0.0
 11
-1.949449999999956
 21
-22.79650000000001
 31
0.0
  0
ARC
  5
48
330
2B
100
AcDbEntity
  8
BEARING_WAVE_GEN
100
AcDbCircle
 10
-0.1270000000000664
 20
-17.90699999999999
 30
0.0
 40
0.127
100
AcDbArc
 50
359.9999999999991
 51
90.0
1001
ACAD
1000
ASC_BOUNDS
1002
{
1070
    19
1005
0
1002
}
  0
ARC
  5
49
330
2B
100
AcDbEntity
  8
BEARING_WAVE_GEN
100
AcDbCircle
 10
-0.1270000000000664
 20
-18.94839999999996
 30
0.0
 40
0.127
100
AcDbArc
 50
270.0
 51
0.0
1001
ACAD
1000
ASC_BOUNDS
1002
{
1070
    19
1005
0
1002
}
  0
LINE
  5
4A
330
2B
100
AcDbEntity
  8
BEARING_WAVE_GEN
100
AcDbLine
 10
0.0
 20
-18.94839999999996
 30
0.0
 11
0.0
 21
-17.90699999999999
 31
0.0
1001
ACAD
1000
ASC_BOUNDS
1002
{
1070
    19
1005
0
1002
}
  0
CIRCLE
  5
4B
330
2B
100
AcDbEntity
  8
BEARING_WAVE_GEN
100
AcDbCircle
 10
-4.063999999999962
 20
21.1836
 30
0.0
 40
2.381249999999999
  0
LINE
  5
4C
330
2B
100
AcDbEntity
  8
BEARING_WAVE_GEN
100
AcDbLine
 10
-0.4444999999999484
 20
24.02840000000003
 30
0.0
 11
-0.4444999999999484
 21
19.07539999999998
 31
0.0
1001
ACAD
1000
ASC_BOUNDS
1002
{
1070
    19
1005
0
1002
}
  0
LINE
  5
4D
330
2B
100
AcDbEntity
  8
SEPARATOR_BEARING
100
AcDbLine
 10
-1.949449999999956
 20
20.0885977808242
 30
0.0
 11
-1.949449999999956
 21
19.49449999999998
 31
0.0
  0
LINE
  5
4E
330
2B
100
AcDbEntity
  8
SEPARATOR_BEARING
100
AcDbLine
 10
-6.445249999999987
 20
19.49449999999998
 30
0.0
 11
-6.445249999999987
 21
22.79650000000001
 31
0.0
1001
ACAD
1000
ASC_BOUNDS
1002
{
1070
    19
1005
0
1002
}
  0
LINE
  5
4F
330
2B
100
AcDbEntity
  8
SEPARATOR_BEARING
100
AcDbLine
 10
-7.715249999999969
 20
19.49449999999998
 30
0.0
 11
-7.715249999999969
 21
22.79650000000001
 31
0.0
1001
ACAD
1000
ASC_BOUNDS
1002
{
1070
    19
1005
0
1002
}
  0
LINE
  5
50
330
2B
100
AcDbEntity
  8
BEARING_WAVE_GEN
100
AcDbLine
 10
-0.1269999999999527
 20
19.07539999999998
 30
0.0
 11
-2.788930119561995
 21
19.07539999999998
 31
0.0
1001
ACAD
1000
ASC_BOUNDS
1002
{
1070
    19
1005
0
1002
}
  0
LINE
  5
51
330
2B
100
AcDbEntity
  8
BEARING_WAVE_GEN
100
AcDbLine
 10
-0.1269999999999527
 20
17.77999999999996
 30
0.0
 11
-8.00099999999986
 21
17.77999999999996
 31
0.0
1001
ACAD
1000
ASC_BOUNDS
1002
{
1070
    19
1005
0
1002
}
  0
LINE
  5
52
330
2B
100
AcDbEntity
  8
SEPARATOR_BEARING
100
AcDbLine
 10
-1.949449999999956
 20
19.49449999999998
 30
0.0
 11
-2.385520702391545
 21
19.49449999999998
 31
0.0
  0
LINE
  5
53
330
2B
100
AcDbEntity
  8
BEARING_WAVE_GEN
100
AcDbLine
 10
-5.339069880437818
 20
19.07539999999998
 30
0.0
 11
-8.000999999999976
 21
19.07539999999998
 31
0.0
1001
ACAD
1000
ASC_BOUNDS
1002
{
1070
    19
1005
0
1002
}
  0
LINE
  5
54
330
2B
100
AcDbEntity
  8
SEPARATOR_BEARING
100
AcDbLine
 10
-5.742479297608382
 20
19.49449999999998
 30
0.0
 11
-7.715249999999969
 21
19.49449999999998
 31
0.0
1001
ACAD
1000
ASC_BOUNDS
1002
{
1070
    19
1005
0
1002
}
  0
LINE
  5
55
330
2B
100
AcDbEntity
  8
BEARING_WAVE_GEN
100
AcDbLine
 10
-8.127999999999929
 20
17.90699999999999
 30
0.0
 11
-8.127999999999929
 21
18.94839999999996
 31
0.0
1001
ACAD
1000
ASC_BOUNDS
1002
{
1070
    19
1005
0
1002
}
  0
ARC
  5
56
330
2B
100
AcDbEntity
  8
BEARING_WAVE_GEN
100
AcDbCircle
 10
-8.000999999999976
 20
18.94839999999996
 30
0.0
 40
0.127
100
AcDbArc
 50
90.0
 51
180.0
  0
ARC
  5
57
330
2B
100
AcDbEntity
  8
BEARING_WAVE_GEN
100
AcDbCircle
 10
-8.000999999999976
 20
18.94839999999996
 30
0.0
 40
0.127
100
AcDbArc
 50
90.0
 51
180.0000000000006
1001
ACAD
1000
ASC_BOUNDS
1002
{
1070
    19
1005
0
1002
}
  0
ARC
  5
58
330
2B
100
AcDbEntity
  8
BEARING_WAVE_GEN
100
AcDbCircle
 10
-8.00099999999986
 20
17.90699999999999
 30
0.0
 40
0.127
100
AcDbArc
 50
180.0
 51
270.0
1001
ACAD
1000
ASC_BOUNDS
1002
{
1070
    19
1005
0
1002
}
  0
LINE
  5
59
330
2B
100
AcDbEntity
  8
BEARING_WAVE_GEN
100
AcDbLine
 10
-7.683500000000094
 20
19.49449999999998
 30
0.0
 11
-7.683500000000094
 21
19.07539999999998
 31
0.0
  0
ARC
  5
5A
330
2B
100
AcDbEntity
  8
BEARING_WAVE_GEN
100
AcDbCircle
 10
-4.063999999999962
 20
21.1836
 30
0.0
 40
2.463799999999999
100
AcDbArc
 50
238.8338439112004
 51
301.1661560887996
1001
ACAD
1000
ASC_BOUNDS
1002
{
1070
    19
1005
0
1002
}
  0
LINE
  5
5B
330
2B
100
AcDbEntity
  8
BEARING_WAVE_GEN
100
AcDbLine
 10
0.0
 20
18.94839999999996
 30
0.0
 11
0.0
 21
17.90699999999999
 31
0.0
1001
ACAD
1000
ASC_BOUNDS
1002
{
1070
    19
1005
0
1002
}
  0
ARC
  5
5C
330
2B
100
AcDbEntity
  8
BEARING_WAVE_GEN
100
AcDbCircle
 10
-0.1269999999999527
 20
18.94839999999996
 30
0.0
 40
0.127
100
AcDbArc
 50
0.0
 51
90.0
1001
ACAD
1000
ASC_BOUNDS
1002
{
1070
    19
1005
0
1002
}
  0
ARC
  5
5D
330
2B
100
AcDbEntity
  8
BEARING_WAVE_GEN
100
AcDbCircle
 10
-0.1269999999999527
 20
17.90699999999999
 30
0.0
 40
0.127
100
AcDbArc
 50
270.0
 51
0.0000000000008142
1001
ACAD
1000
ASC_BOUNDS
1002
{
1070
    19
1005
0
1002
}
  0
LINE
  5
5E
330
2B
100
AcDbEntity
  8
BEARING_WAVE_GEN
100
AcDbLine
 10
-0.9524999999998724
 20
24.53640000000003
 30
0.0
 11
-7.175499999999942
 21
24.53640000000003
 31
0.0
1001
ACAD
1000
ASC_BOUNDS
1002
{
1070
    19
1005
0
1002
}
  0
LINE
  5
5F
330
2B
100
AcDbEntity
  8
BEARING_WAVE_GEN
100
AcDbLine
 10
-0.5714999999999009
 20
23.31719999999996
 30
0.0
 11
-2.781865966445023
 21
23.31720000000002
 31
0.0
1001
ACAD
1000
ASC_BOUNDS
1002
{
1070
    19
1005
0
1002
}
  0
LINE
  5
60
330
2B
100
AcDbEntity
  8
SEPARATOR_BEARING
100
AcDbLine
 10
-1.949449999999956
 20
22.79650000000001
 30
0.0
 11
-2.312170912303372
 21
22.79650000000001
 31
0.0
  0
LINE
  5
61
330
2B
100
AcDbEntity
  8
BEARING_WAVE_GEN
100
AcDbLine
 10
-5.346134033554903
 20
23.31720000000002
 30
0.0
 11
-7.556499999999914
 21
23.31719999999996
 31
0.0
1001
ACAD
1000
ASC_BOUNDS
1002
{
1070
    19
1005
0
1002
}
  0
LINE
  5
62
330
2B
100
AcDbEntity
  8
SEPARATOR_BEARING
100
AcDbLine
 10
-5.815829087696557
 20
22.79650000000001
 30
0.0
 11
-7.715249999999969
 21
22.79650000000001
 31
0.0
1001
ACAD
1000
ASC_BOUNDS
1002
{
1070
    19
1005
0
1002
}
  0
ARC
  5
63
330
2B
100
AcDbEntity
  8
BEARING_WAVE_GEN
100
AcDbCircle
 10
-7.175499999999942
 20
24.02840000000003
 30
0.0
 40
0.508
100
AcDbArc
 50
90.0
 51
179.9999999999983
1001
ACAD
1000
ASC_BOUNDS
1002
{
1070
    19
1005
0
1002
}
  0
ARC
  5
64
330
2B
100
AcDbEntity
  8
BEARING_WAVE_GEN
100
AcDbCircle
 10
-7.556499999999914
 20
23.44419999999995
 30
0.0
 40
0.127
100
AcDbArc
 50
180.0
 51
270.0
1001
ACAD
1000
ASC_BOUNDS
1002
{
1070
    19
1005
0
1002
}
  0
LINE
  5
65
330
2B
100
AcDbEntity
  8
BEARING_WAVE_GEN
100
AcDbLine
 10
-7.683499999999868
 20
24.02840000000003
 30
0.0
 11
-7.68349999999998
 21
22.79650000000001
 31
0.0
1001
ACAD
1000
ASC_BOUNDS
1002
{
1070
    19
1005
0
1002
}
  0
ARC
  5
66
330
2B
100
AcDbEntity
  8
BEARING_WAVE_GEN
100
AcDbCircle
 10
-4.063999999999962
 20
21.1836
 30
0.0
 40
2.489199999999998
100
AcDbArc
 50
58.9972808661281
 51
121.0027191338723
1001
ACAD
1000
ASC_BOUNDS
1002
{
1070
    19
1005
0
1002
}
  0
ARC
  5
67
330
2B
100
AcDbEntity
  8
BEARING_WAVE_GEN
100
AcDbCircle
 10
-0.9524999999998724
 20
24.02840000000003
 30
0.0
 40
0.508
100
AcDbArc
 50
0.0
 51
90.0
1001
ACAD
1000
ASC_BOUNDS
1002
{
1070
    19
1005
0
1002
}
  0
ARC
  5
68
330
2B
100
AcDbEntity
  8
BEARING_WAVE_GEN
100
AcDbCircle
 10
-0.5714999999999009
 20
23.44419999999995
 30
0.0
 40
0.127
100
AcDbArc
 50
270.0
 51
0.0
1001
ACAD
1000
ASC_BOUNDS
1002
{
1070
    19
1005
0
1002
}
  0
LINE
  5
69
330
2B
100
AcDbEntity
  8
SEPARATOR_BEARING
100
AcDbLine
 10
-1.949449999999956
 20
22.27860221917578
 30
0.0
 11
-1.949449999999956
 21
22.79650000000001
 31
0.0
  0
ENDBLK
  5
6B
330
2B
100
AcDbEntity
  8
0
100
AcDbBlockEnd
  0
BLOCK
  5
543
330
540
100
AcDbEntity
  8
0
100
AcDbBlockBegin
  2
NTC
 70
     0
 10
0.0
 20
0.0
 30
0.0
  3
NTC
  1

  0
LWPOLYLINE
  5
541
330
540
100
AcDbEntity
  8
0
100
AcDbPolyline
 90
        8
 70
     1
 43
0.0
 10
4.581008201925953
 20
-10.78862239032818
 10
319.3921777697513
 20
-10.78862239032818
 42
-0.4142135623730951
 10
324.9046777697513
 20
-16.30112239032816
 10
324.9046777697513
 20
-117.4075202476924
 42
-0.4142135623730951
 10
319.3921777697513
 20
-122.9200202476925
 10
4.581008201925836
 20
-122.9200202476925
 42
-0.4142135623730951
 10
-0.9314917980741483
 20
-117.4075202476924
 10
-0.9314917980740915
 20
-16.30112239032816
 42
-0.4142135623730951
  0
MTEXT
  5
542
330
540
100
AcDbEntity
  8
0
  6
Continuous
370
    30
100
AcDbMText
 10
21.65307678143926
 20
-17.4535155144544
 30
0.0
 40
8.75
 41
294.5432999999998
 71
     1
 72
     5
  3
{\fTxt|b1|i0|c0|p2;Notice:\P\Ftxt.shx;\H0.5714x;All specifications and dimensions shown in the drawing are subject to change without notice. This drawing is the property of Harmonic Drive LLC.   This data is believed to be accurate, however, Harmonic
  1
 Drive LLC assumes no liability for any errors or omissions in the specifications, models, or drawings.\P\PHarmonic Drive LLC\PTel: 800-921-3332\Pwww.harmonicdrive.net}
 73
     1
 44
1.0
  0
ENDBLK
  5
544
330
540
100
AcDbEntity
  8
0
100
AcDbBlockEnd
  0
BLOCK
  5
547
330
545
100
AcDbEntity
  8
0
100
AcDbBlockBegin
  2
Notice
 70
     0
 10
0.0
 20
0.0
 30
0.0
  3
Notice
  1

  0
INSERT
  5
546
330
545
100
AcDbEntity
  8
0
100
AcDbBlockReference
  2
NTC
 10
-1.765593945145185
 20
0.8372451854194725
 30
0.0
 41
0.0132641562133813
 42
0.0132641562133813
 43
0.0132641562133813
  0
ENDBLK
  5
548
330
545
100
AcDbEntity
  8
0
100
AcDbBlockEnd
  0
BLOCK
  5
554
330
551
100
AcDbEntity
  8
0
 62
     7
100
AcDbBlockBegin
  2
AI9-BLK14
 70
     0
 10
0.0
 20
0.0
 30
0.0
  3
AI9-BLK14
  1

  0
SPLINE
  5
552
330
551
100
AcDbEntity
  8
LAYER_1
 62
     7
100
AcDbSpline
210
0.0
220
0.0
230
1.0
 70
    11
 71
     3
 72
    23
 73
    19
 74
     0
 42
0.0000000001
 43
0.0000000001
 40
0.0
 40
0.0
 40
0.0
 40
0.0
 40
1.0
 40
1.0
 40
1.0
 40
2.0
 40
2.0
 40
2.0
 40
3.0
 40
3.0
 40
3.0
 40
4.0
 40
4.0
 40
4.0
 40
5.0
 40
5.0
 40
5.0
 40
6.0
 40
6.0
 40
6.0
 40
6.0
 10
-10.90321044921874
 20
10.88107571072048
 30
0.0
 10
-10.90321044921874
 20
10.88107571072048
 30
0.0
 10
-10.90321044921874
 20
-10.88107571072048
 30
0.0
 10
-10.90321044921874
 20
-10.88107571072048
 30
0.0
 10
-10.90321044921874
 20
-10.88107571072048
 30
0.0
 10
1.752692328559025
 20
-10.88107571072048
 30
0.0
 10
1.752692328559025
 20
-10.88107571072048
 30
0.0
 10
3.280592176649305
 20
-10.88107571072048
 30
0.0
 10
10.90321044921874
 20
-10.32383151584201
 30
0.0
 10
10.90321044921874
 20
0.6792867024739583
 30
0.0
 10
10.90321044921874
 20
10.61700914171006
 30
0.0
 10
2.773129611545138
 20
10.87952541775172
 30
0.0
 10
2.691136338975693
 20
10.88090345594618
 30
0.0
 10
2.691136338975693
 20
10.88090345594618
 30
0.0
 10
-9.903099229600693
 20
10.88107571072048
 30
0.0
 10
-9.903099229600693
 20
10.88107571072048
 30
0.0
 10
-9.903099229600693
 20
10.88107571072048
 30
0.0
 10
-10.90321044921874
 20
10.88107571072048
 30
0.0
 10
-10.90321044921874
 20
10.88107571072048
 30
0.0
  0
SPLINE
  5
553
330
551
100
AcDbEntity
  8
LAYER_1
 62
     7
100
AcDbSpline
210
0.0
220
0.0
230
1.0
 70
    11
 71
     3
 72
    20
 73
    16
 74
     0
 42
0.0000000001
 43
0.0000000001
 40
0.0
 40
0.0
 40
0.0
 40
0.0
 40
1.0
 40
1.0
 40
1.0
 40
2.0
 40
2.0
 40
2.0
 40
3.0
 40
3.0
 40
3.0
 40
4.0
 40
4.0
 40
4.0
 40
5.0
 40
5.0
 40
5.0
 40
5.0
 10
2.672877332899305
 20
8.881197781032986
 30
0.0
 10
2.905421278211805
 20
8.874307590060762
 30
0.0
 10
8.902988009982637
 20
8.616442192925347
 30
0.0
 10
8.902988009982637
 20
0.6792867024739583
 30
0.0
 10
8.902988009982637
 20
-8.191661919487842
 30
0.0
 10
3.430109320746526
 20
-8.881197781032986
 30
0.0
 10
1.752692328559025
 20
-8.881197781032986
 30
0.0
 10
1.752692328559025
 20
-8.881197781032986
 30
0.0
 10
-7.231427680121528
 20
-8.881197781032986
 30
0.0
 10
-8.902988009982637
 20
-8.881197781032986
 30
0.0
 10
-8.902988009982637
 20
-7.174497477213541
 30
0.0
 10
-8.902988009982637
 20
7.174497477213541
 30
0.0
 10
-8.902988009982637
 20
8.881197781032986
 30
0.0
 10
-7.208690049913191
 20
8.881197781032986
 30
0.0
 10
2.672877332899305
 20
8.881197781032986
 30
0.0
 10
2.672877332899305
 20
8.881197781032986
 30
0.0
  0
ENDBLK
  5
555
330
551
100
AcDbEntity
  8
0
100
AcDbBlockEnd
  0
BLOCK
  5
559
330
556
100
AcDbEntity
  8
0
 62
     7
100
AcDbBlockBegin
  2
AI9-BLK13
 70
     0
 10
0.0
 20
0.0
 30
0.0
  3
AI9-BLK13
  1

  0
LWPOLYLINE
  5
557
330
556
100
AcDbEntity
  8
LAYER_1
 62
     7
100
AcDbPolyline
 90
       12
 70
     1
 43
0.0
 10
-3.792361111111107
 20
10.7376736111111
 10
-2.469444444444443
 20
10.7376736111111
 10
-2.469444444444443
 20
1.874131944444444
 10
2.469444444444443
 20
1.874131944444444
 10
2.469444444444443
 20
10.7376736111111
 10
3.792361111111107
 20
10.7376736111111
 10
3.792361111111107
 20
-10.7376736111111
 10
2.469444444444443
 20
-10.7376736111111
 10
2.469444444444443
 20
-0.6835069444444444
 10
-2.469444444444443
 20
-0.6835069444444444
 10
-2.469444444444443
 20
-10.7376736111111
 10
-3.792361111111107
 20
-10.7376736111111
  0
HATCH
  5
558
330
556
100
AcDbEntity
  8
LAYER_1
 62
     7
100
AcDbHatch
 10
0.0
 20
0.0
 30
0.0
210
0.0
220
0.0
230
1.0
  2
SOLID
 70
     1
 71
     0
 91
        1
 92
        3
 72
     0
 73
     1
 93
       12
 10
-3.792361111111107
 20
10.7376736111111
 10
-2.469444444444443
 20
10.7376736111111
 10
-2.469444444444443
 20
1.874131944444444
 10
2.469444444444443
 20
1.874131944444444
 10
2.469444444444443
 20
10.7376736111111
 10
3.792361111111107
 20
10.7376736111111
 10
3.792361111111107
 20
-10.7376736111111
 10
2.469444444444443
 20
-10.7376736111111
 10
2.469444444444443
 20
-0.6835069444444444
 10
-2.469444444444443
 20
-0.6835069444444444
 10
-2.469444444444443
 20
-10.7376736111111
 10
-3.792361111111107
 20
-10.7376736111111
 97
        0
 75
     2
 76
     1
 98
        1
 10
0.0
 20
0.0
  0
ENDBLK
  5
55A
330
556
100
AcDbEntity
  8
0
100
AcDbBlockEnd
  0
BLOCK
  5
55E
330
55B
100
AcDbEntity
  8
0
 62
     7
100
AcDbBlockBegin
  2
AI9-BLK11
 70
     0
 10
0.0
 20
0.0
 30
0.0
  3
AI9-BLK11
  1

  0
SPLINE
  5
55C
330
55B
100
AcDbEntity
  8
LAYER_1
 62
     7
100
AcDbSpline
210
0.0
220
0.0
230
1.0
 70
    11
 71
     3
 72
    26
 73
    22
 74
     0
 42
0.0000000001
 43
0.0000000001
 40
0.0
 40
0.0
 40
0.0
 40
0.0
 40
1.0
 40
1.0
 40
1.0
 40
2.0
 40
2.0
 40
2.0
 40
3.0
 40
3.0
 40
3.0
 40
4.0
 40
4.0
 40
4.0
 40
5.0
 40
5.0
 40
5.0
 40
6.0
 40
6.0
 40
6.0
 40
7.0
 40
7.0
 40
7.0
 40
7.0
 10
-2.645833333333333
 20
0.9039930555555551
 30
0.0
 10
-2.645833333333333
 20
0.9039930555555551
 30
0.0
 10
-2.645833333333333
 20
8.180034722222217
 30
0.0
 10
-2.645833333333333
 20
8.180034722222217
 30
0.0
 10
-2.645833333333333
 20
8.180034722222217
 30
0.0
 10
0.465087890625
 20
8.180034722222217
 30
0.0
 10
0.465087890625
 20
8.180034722222217
 30
0.0
 10
0.9026150173611108
 20
8.180034722222217
 30
0.0
 10
1.24988064236111
 20
8.034651692708331
 30
0.0
 10
1.506884765625
 20
7.745263671874997
 30
0.0
 10
2.001600477430554
 20
7.194048394097221
 30
0.0
 10
2.248958333333332
 20
6.160519748263887
 30
0.0
 10
2.248958333333332
 20
4.643299696180553
 30
0.0
 10
2.248958333333332
 20
3.232188585069443
 30
0.0
 10
2.072569444444444
 20
2.256537543402775
 30
0.0
 10
1.720480685763888
 20
1.715657552083333
 30
0.0
 10
1.368391927083333
 20
1.174088541666665
 30
0.0
 10
0.8929687499999998
 20
0.9039930555555551
 30
0.0
 10
0.2942111545138888
 20
0.9039930555555551
 30
0.0
 10
0.2942111545138888
 20
0.9039930555555551
 30
0.0
 10
-2.645833333333333
 20
0.9039930555555551
 30
0.0
 10
-2.645833333333333
 20
0.9039930555555551
 30
0.0
  0
SPLINE
  5
55D
330
55B
100
AcDbEntity
  8
LAYER_1
 62
     7
100
AcDbSpline
210
0.0
220
0.0
230
1.0
 70
    11
 71
     3
 72
    68
 73
    64
 74
     0
 42
0.0000000001
 43
0.0000000001
 40
0.0
 40
0.0
 40
0.0
 40
0.0
 40
1.0
 40
1.0
 40
1.0
 40
2.0
 40
2.0
 40
2.0
 40
3.0
 40
3.0
 40
3.0
 40
4.0
 40
4.0
 40
4.0
 40
5.0
 40
5.0
 40
5.0
 40
6.0
 40
6.0
 40
6.0
 40
7.0
 40
7.0
 40
7.0
 40
8.0
 40
8.0
 40
8.0
 40
9.0
 40
9.0
 40
9.0
 40
10.0
 40
10.0
 40
10.0
 40
11.0
 40
11.0
 40
11.0
 40
12.0
 40
12.0
 40
12.0
 40
13.0
 40
13.0
 40
13.0
 40
14.0
 40
14.0
 40
14.0
 40
15.0
 40
15.0
 40
15.0
 40
16.0
 40
16.0
 40
16.0
 40
17.0
 40
17.0
 40
17.0
 40
18.0
 40
18.0
 40
18.0
 40
19.0
 40
19.0
 40
19.0
 40
20.0
 40
20.0
 40
20.0
 40
21.0
 40
21.0
 40
21.0
 40
21.0
 10
-3.968749999999998
 20
-10.7376736111111
 30
0.0
 10
-3.968749999999998
 20
-10.7376736111111
 30
0.0
 10
-2.645833333333333
 20
-10.7376736111111
 30
0.0
 10
-2.645833333333333
 20
-10.7376736111111
 30
0.0
 10
-2.645833333333333
 20
-10.7376736111111
 30
0.0
 10
-2.645833333333333
 20
-1.521354166666665
 30
0.0
 10
-2.645833333333333
 20
-1.521354166666665
 30
0.0
 10
-2.645833333333333
 20
-1.521354166666665
 30
0.0
 10
0.2390896267361111
 20
-1.521354166666665
 30
0.0
 10
0.2390896267361111
 20
-1.521354166666665
 30
0.0
 10
0.7599880642361111
 20
-1.521354166666665
 30
0.0
 10
1.143771701388887
 20
-1.65295681423611
 30
0.0
 10
1.390440538194444
 20
-1.916162109374999
 30
0.0
 10
1.816254340277773
 20
-2.39434136284722
 30
0.0
 10
2.04363064236111
 20
-3.335541449652775
 30
0.0
 10
2.072569444444444
 20
-4.739762369791666
 30
0.0
 10
2.072569444444444
 20
-4.739762369791666
 30
0.0
 10
2.160763888888888
 20
-8.324039713541665
 30
0.0
 10
2.160763888888888
 20
-8.324039713541665
 30
0.0
 10
2.18005642361111
 20
-9.163264973958332
 30
0.0
 10
2.202794053819443
 20
-9.728949652777775
 30
0.0
 10
2.227598741319444
 20
-10.02109374999998
 30
0.0
 10
2.252403428819443
 20
-10.31392686631944
 30
0.0
 10
2.28892144097222
 20
-10.55301649305555
 30
0.0
 10
2.33853081597222
 20
-10.7376736111111
 30
0.0
 10
2.33853081597222
 20
-10.7376736111111
 30
0.0
 10
3.968749999999998
 20
-10.7376736111111
 30
0.0
 10
3.968749999999998
 20
-10.7376736111111
 30
0.0
 10
3.968749999999998
 20
-10.7376736111111
 30
0.0
 10
3.968749999999998
 20
-10.25260416666666
 30
0.0
 10
3.968749999999998
 20
-10.25260416666666
 30
0.0
 10
3.766867404513888
 20
-10.05830078125
 30
0.0
 10
3.625618489583333
 20
-9.621462673611112
 30
0.0
 10
3.545692274305555
 20
-8.942089843749997
 30
0.0
 10
3.49470486111111
 20
-8.543836805555555
 30
0.0
 10
3.459564887152775
 20
-7.937499999999999
 30
0.0
 10
3.439583333333333
 20
-7.121701388888887
 30
0.0
 10
3.439583333333333
 20
-7.121701388888887
 30
0.0
 10
3.395486111111106
 20
-4.232644314236106
 30
0.0
 10
3.395486111111106
 20
-4.232644314236106
 30
0.0
 10
3.375504557291666
 20
-2.981385633680555
 30
0.0
 10
3.26870659722222
 20
-2.077392578125
 30
0.0
 10
3.075781249999999
 20
-1.522043185763888
 30
0.0
 10
2.882166883680555
 20
-0.9666937934027776
 30
0.0
 10
2.592089843749999
 20
-0.5188313802083333
 30
0.0
 10
2.204861111111104
 20
-0.1770779079861111
 30
0.0
 10
2.63618706597222
 20
0.3197048611111111
 30
0.0
 10
2.971739366319443
 20
0.9770290798611107
 30
0.0
 10
3.211518012152775
 20
1.79558376736111
 30
0.0
 10
3.451296657986107
 20
2.613449435763888
 30
0.0
 10
3.571874999999999
 20
3.66558159722222
 30
0.0
 10
3.571874999999999
 20
4.951291232638888
 30
0.0
 10
3.571874999999999
 20
7.415912543402777
 30
0.0
 10
3.124701605902775
 20
9.106076388888887
 30
0.0
 10
2.231043836805555
 20
10.02178276909722
 30
0.0
 10
1.759754774305553
 20
10.498583984375
 30
0.0
 10
1.163753255208332
 20
10.7376736111111
 30
0.0
 10
0.443039279513889
 20
10.7376736111111
 30
0.0
 10
0.443039279513889
 20
10.7376736111111
 30
0.0
 10
-3.968749999999998
 20
10.7376736111111
 30
0.0
 10
-3.968749999999998
 20
10.7376736111111
 30
0.0
 10
-3.968749999999998
 20
10.7376736111111
 30
0.0
 10
-3.968749999999998
 20
-10.7376736111111
 30
0.0
 10
-3.968749999999998
 20
-10.7376736111111
 30
0.0
  0
ENDBLK
  5
55F
330
55B
100
AcDbEntity
  8
0
100
AcDbBlockEnd
  0
BLOCK
  5
562
330
560
100
AcDbEntity
  8
0
 62
     7
100
AcDbBlockBegin
  2
AI9-BLK10
 70
     0
 10
0.0
 20
0.0
 30
0.0
  3
AI9-BLK10
  1

  0
SPLINE
  5
561
330
560
100
AcDbEntity
  8
LAYER_1
 62
     7
100
AcDbSpline
210
0.0
220
0.0
230
1.0
 70
    11
 71
     3
 72
    59
 73
    55
 74
     0
 42
0.0000000001
 43
0.0000000001
 40
0.0
 40
0.0
 40
0.0
 40
0.0
 40
1.0
 40
1.0
 40
1.0
 40
2.0
 40
2.0
 40
2.0
 40
3.0
 40
3.0
 40
3.0
 40
4.0
 40
4.0
 40
4.0
 40
5.0
 40
5.0
 40
5.0
 40
6.0
 40
6.0
 40
6.0
 40
7.0
 40
7.0
 40
7.0
 40
8.0
 40
8.0
 40
8.0
 40
9.0
 40
9.0
 40
9.0
 40
10.0
 40
10.0
 40
10.0
 40
11.0
 40
11.0
 40
11.0
 40
12.0
 40
12.0
 40
12.0
 40
13.0
 40
13.0
 40
13.0
 40
14.0
 40
14.0
 40
14.0
 40
15.0
 40
15.0
 40
15.0
 40
16.0
 40
16.0
 40
16.0
 40
17.0
 40
17.0
 40
17.0
 40
18.0
 40
18.0
 40
18.0
 40
18.0
 10
-4.652256944444443
 20
10.7376736111111
 30
0.0
 10
-4.652256944444443
 20
10.7376736111111
 30
0.0
 10
-2.798795572916666
 20
10.7376736111111
 30
0.0
 10
-2.798795572916666
 20
10.7376736111111
 30
0.0
 10
-2.798795572916666
 20
10.7376736111111
 30
0.0
 10
0.0
 20
-7.419357638888887
 30
0.0
 10
0.0
 20
-7.419357638888887
 30
0.0
 10
0.0
 20
-7.419357638888887
 30
0.0
 10
2.793283420138888
 20
10.7376736111111
 30
0.0
 10
2.793283420138888
 20
10.7376736111111
 30
0.0
 10
2.793283420138888
 20
10.7376736111111
 30
0.0
 10
4.652256944444443
 20
10.7376736111111
 30
0.0
 10
4.652256944444443
 20
10.7376736111111
 30
0.0
 10
4.652256944444443
 20
10.7376736111111
 30
0.0
 10
4.652256944444443
 20
-10.7376736111111
 30
0.0
 10
4.652256944444443
 20
-10.7376736111111
 30
0.0
 10
4.652256944444443
 20
-10.7376736111111
 30
0.0
 10
3.41753472222222
 20
-10.7376736111111
 30
0.0
 10
3.41753472222222
 20
-10.7376736111111
 30
0.0
 10
3.41753472222222
 20
-10.7376736111111
 30
0.0
 10
3.41753472222222
 20
1.936832682291665
 30
0.0
 10
3.41753472222222
 20
1.936832682291665
 30
0.0
 10
3.41753472222222
 20
2.375048828124999
 30
0.0
 10
3.424424913194443
 20
3.101274956597221
 30
0.0
 10
3.439583333333333
 20
4.11482204861111
 30
0.0
 10
3.454052734374998
 20
5.128369140624998
 30
0.0
 10
3.461631944444443
 20
6.214952256944441
 30
0.0
 10
3.461631944444443
 20
7.375260416666666
 30
0.0
 10
3.461631944444443
 20
7.375260416666666
 30
0.0
 10
0.6538791232638889
 20
-10.7376736111111
 30
0.0
 10
0.6538791232638889
 20
-10.7376736111111
 30
0.0
 10
0.6538791232638889
 20
-10.7376736111111
 30
0.0
 10
-0.6628363715277778
 20
-10.7376736111111
 30
0.0
 10
-0.6628363715277778
 20
-10.7376736111111
 30
0.0
 10
-0.6628363715277778
 20
-10.7376736111111
 30
0.0
 10
-3.461631944444443
 20
7.375260416666666
 30
0.0
 10
-3.461631944444443
 20
7.375260416666666
 30
0.0
 10
-3.461631944444443
 20
7.375260416666666
 30
0.0
 10
-3.461631944444443
 20
6.717247178819441
 30
0.0
 10
-3.461631944444443
 20
6.717247178819441
 30
0.0
 10
-3.461631944444443
 20
6.190836588541666
 30
0.0
 10
-3.45474175347222
 20
5.389507378472222
 30
0.0
 10
-3.439583333333333
 20
4.312570529513888
 30
0.0
 10
-3.425113932291666
 20
3.235633680555555
 30
0.0
 10
-3.41753472222222
 20
2.44395073784722
 30
0.0
 10
-3.41753472222222
 20
1.936832682291665
 30
0.0
 10
-3.41753472222222
 20
1.936832682291665
 30
0.0
 10
-3.41753472222222
 20
-10.7376736111111
 30
0.0
 10
-3.41753472222222
 20
-10.7376736111111
 30
0.0
 10
-3.41753472222222
 20
-10.7376736111111
 30
0.0
 10
-4.652256944444443
 20
-10.7376736111111
 30
0.0
 10
-4.652256944444443
 20
-10.7376736111111
 30
0.0
 10
-4.652256944444443
 20
-10.7376736111111
 30
0.0
 10
-4.652256944444443
 20
10.7376736111111
 30
0.0
 10
-4.652256944444443
 20
10.7376736111111
 30
0.0
  0
ENDBLK
  5
563
330
560
100
AcDbEntity
  8
0
100
AcDbBlockEnd
  0
BLOCK
  5
567
330
564
100
AcDbEntity
  8
0
 62
     7
100
AcDbBlockBegin
  2
AI9-BLK9
 70
     0
 10
0.0
 20
0.0
 30
0.0
  3
AI9-BLK9
  1

  0
SPLINE
  5
565
330
564
100
AcDbEntity
  8
LAYER_1
 62
     7
100
AcDbSpline
210
0.0
220
0.0
230
1.0
 70
    11
 71
     3
 72
    29
 73
    25
 74
     0
 42
0.0000000001
 43
0.0000000001
 40
0.0
 40
0.0
 40
0.0
 40
0.0
 40
1.0
 40
1.0
 40
1.0
 40
2.0
 40
2.0
 40
2.0
 40
3.0
 40
3.0
 40
3.0
 40
4.0
 40
4.0
 40
4.0
 40
5.0
 40
5.0
 40
5.0
 40
6.0
 40
6.0
 40
6.0
 40
7.0
 40
7.0
 40
7.0
 40
8.0
 40
8.0
 40
8.0
 40
8.0
 10
0.0668348524305556
 20
-8.753298611111111
 30
0.0
 10
-0.9067491319444444
 20
-8.753298611111111
 30
0.0
 10
-1.60954861111111
 20
-7.936810980902778
 30
0.0
 10
-2.041563585069444
 20
-6.30383572048611
 30
0.0
 10
-2.474267578124999
 20
-4.670860460069443
 30
0.0
 10
-2.689930555555555
 20
-2.664436848958333
 30
0.0
 10
-2.689930555555555
 20
-0.28525390625
 30
0.0
 10
-2.689930555555555
 20
2.68855251736111
 30
0.0
 10
-2.439127604166666
 20
4.938199869791666
 30
0.0
 10
-1.937521701388888
 20
6.464377170138886
 30
0.0
 10
-1.43591579861111
 20
7.989865451388887
 30
0.0
 10
-0.7827256944444444
 20
8.753298611111111
 30
0.0
 10
0.0220486111111111
 20
8.753298611111111
 30
0.0
 10
0.8468044704861108
 20
8.753298611111111
 30
0.0
 10
1.49792751736111
 20
7.982975260416663
 30
0.0
 10
1.974728732638888
 20
6.442328559027776
 30
0.0
 10
2.451529947916665
 20
4.901681857638886
 30
0.0
 10
2.689930555555555
 20
2.868386501736111
 30
0.0
 10
2.689930555555555
 20
0.3438205295138888
 30
0.0
 10
2.689930555555555
 20
-2.045697699652774
 30
0.0
 10
2.483224826388884
 20
-4.15891927083333
 30
0.0
 10
2.071191406249999
 20
-5.996533203124998
 30
0.0
 10
1.65915798611111
 20
-7.834836154513887
 30
0.0
 10
0.9908094618055557
 20
-8.753298611111111
 30
0.0
 10
0.0668348524305556
 20
-8.753298611111111
 30
0.0
  0
SPLINE
  5
566
330
564
100
AcDbEntity
  8
LAYER_1
 62
     7
100
AcDbSpline
210
0.0
220
0.0
230
1.0
 70
    11
 71
     3
 72
    29
 73
    25
 74
     0
 42
0.0000000001
 43
0.0000000001
 40
0.0
 40
0.0
 40
0.0
 40
0.0
 40
1.0
 40
1.0
 40
1.0
 40
2.0
 40
2.0
 40
2.0
 40
3.0
 40
3.0
 40
3.0
 40
4.0
 40
4.0
 40
4.0
 40
5.0
 40
5.0
 40
5.0
 40
6.0
 40
6.0
 40
6.0
 40
7.0
 40
7.0
 40
7.0
 40
8.0
 40
8.0
 40
8.0
 40
8.0
 10
-0.0289388020833333
 20
11.35503472222222
 30
0.0
 10
-1.317404513888887
 20
11.35503472222222
 30
0.0
 10
-2.28892144097222
 20
10.02798394097222
 30
0.0
 10
-2.94280056423611
 20
7.374571397569441
 30
0.0
 10
-3.450607638888888
 20
5.30613606770833
 30
0.0
 10
-3.704166666666666
 20
2.81877712673611
 30
0.0
 10
-3.704166666666666
 20
-0.0881944444444445
 30
0.0
 10
-3.704166666666666
 20
-3.307291666666666
 30
0.0
 10
-3.406510416666666
 20
-5.97035047743055
 30
0.0
 10
-2.811197916666666
 20
-8.077370876736106
 30
0.0
 10
-2.147672526041664
 20
-10.26293945312499
 30
0.0
 10
-1.229899088541666
 20
-11.35503472222222
 30
0.0
 10
-0.0585666232638889
 20
-11.35503472222222
 30
0.0
 10
1.20027126736111
 20
-11.35503472222222
 30
0.0
 10
2.166276041666665
 20
-10.10653211805555
 30
0.0
 10
2.840136718749998
 20
-7.609526909722221
 30
0.0
 10
3.416156684027776
 20
-5.483213975694441
 30
0.0
 10
3.704166666666666
 20
-2.814643012152775
 30
0.0
 10
3.704166666666666
 20
0.3948079427083333
 30
0.0
 10
3.704166666666666
 20
3.360346137152776
 30
0.0
 10
3.449918619791666
 20
5.793961588541666
 30
0.0
 10
2.94280056423611
 20
7.696343315972222
 30
0.0
 10
2.298567708333333
 20
10.13547092013888
 30
0.0
 10
1.307758246527777
 20
11.35503472222222
 30
0.0
 10
-0.0289388020833333
 20
11.35503472222222
 30
0.0
  0
ENDBLK
  5
568
330
564
100
AcDbEntity
  8
0
100
AcDbBlockEnd
  0
BLOCK
  5
56C
330
569
100
AcDbEntity
  8
0
 62
     7
100
AcDbBlockBegin
  2
AI9-BLK8
 70
     0
 10
0.0
 20
0.0
 30
0.0
  3
AI9-BLK8
  1

  0
LWPOLYLINE
  5
56A
330
569
100
AcDbEntity
  8
LAYER_1
 62
     7
100
AcDbPolyline
 90
       10
 70
     1
 43
0.0
 10
-3.792361111111107
 20
10.7376736111111
 10
-2.268939887152773
 20
10.7376736111111
 10
2.557638888888888
 20
-6.505718315972222
 10
2.557638888888888
 20
10.7376736111111
 10
3.792361111111107
 20
10.7376736111111
 10
3.792361111111107
 20
-10.7376736111111
 10
2.32612847222222
 20
-10.7376736111111
 10
-2.557638888888888
 20
6.549815538194441
 10
-2.557638888888888
 20
-10.7376736111111
 10
-3.792361111111107
 20
-10.7376736111111
  0
HATCH
  5
56B
330
569
100
AcDbEntity
  8
LAYER_1
 62
     7
100
AcDbHatch
 10
0.0
 20
0.0
 30
0.0
210
0.0
220
0.0
230
1.0
  2
SOLID
 70
     1
 71
     0
 91
        1
 92
        3
 72
     0
 73
     1
 93
       10
 10
-3.792361111111107
 20
10.7376736111111
 10
-2.268939887152773
 20
10.7376736111111
 10
2.557638888888888
 20
-6.505718315972222
 10
2.557638888888888
 20
10.7376736111111
 10
3.792361111111107
 20
10.7376736111111
 10
3.792361111111107
 20
-10.7376736111111
 10
2.32612847222222
 20
-10.7376736111111
 10
-2.557638888888888
 20
6.549815538194441
 10
-2.557638888888888
 20
-10.7376736111111
 10
-3.792361111111107
 20
-10.7376736111111
 97
        0
 75
     2
 76
     1
 98
        1
 10
0.0
 20
0.0
  0
ENDBLK
  5
56D
330
569
100
AcDbEntity
  8
0
100
AcDbBlockEnd
  0
BLOCK
  5
571
330
56E
100
AcDbEntity
  8
0
 62
     7
100
AcDbBlockBegin
  2
AI9-BLK7
 70
     0
 10
0.0
 20
0.0
 30
0.0
  3
AI9-BLK7
  1

  0
LWPOLYLINE
  5
56F
330
56E
100
AcDbEntity
  8
LAYER_1
 62
     7
100
AcDbPolyline
 90
        4
 70
     1
 43
0.0
 10
-0.6614583333333333
 20
10.7376736111111
 10
0.6614583333333333
 20
10.7376736111111
 10
0.6614583333333333
 20
-10.7376736111111
 10
-0.6614583333333333
 20
-10.7376736111111
  0
HATCH
  5
570
330
56E
100
AcDbEntity
  8
LAYER_1
 62
     7
100
AcDbHatch
 10
0.0
 20
0.0
 30
0.0
210
0.0
220
0.0
230
1.0
  2
SOLID
 70
     1
 71
     0
 91
        1
 92
        3
 72
     0
 73
     1
 93
        4
 10
-0.6614583333333333
 20
10.7376736111111
 10
0.6614583333333333
 20
10.7376736111111
 10
0.6614583333333333
 20
-10.7376736111111
 10
-0.6614583333333333
 20
-10.7376736111111
 97
        0
 75
     2
 76
     1
 98
        1
 10
0.0
 20
0.0
  0
ENDBLK
  5
572
330
56E
100
AcDbEntity
  8
0
100
AcDbBlockEnd
  0
BLOCK
  5
575
330
573
100
AcDbEntity
  8
0
 62
     7
100
AcDbBlockBegin
  2
AI9-BLK6
 70
     0
 10
0.0
 20
0.0
 30
0.0
  3
AI9-BLK6
  1

  0
SPLINE
  5
574
330
573
100
AcDbEntity
  8
LAYER_1
 62
     7
100
AcDbSpline
210
0.0
220
0.0
230
1.0
 70
    11
 71
     3
 72
    59
 73
    55
 74
     0
 42
0.0000000001
 43
0.0000000001
 40
0.0
 40
0.0
 40
0.0
 40
0.0
 40
1.0
 40
1.0
 40
1.0
 40
2.0
 40
2.0
 40
2.0
 40
3.0
 40
3.0
 40
3.0
 40
4.0
 40
4.0
 40
4.0
 40
5.0
 40
5.0
 40
5.0
 40
6.0
 40
6.0
 40
6.0
 40
7.0
 40
7.0
 40
7.0
 40
8.0
 40
8.0
 40
8.0
 40
9.0
 40
9.0
 40
9.0
 40
10.0
 40
10.0
 40
10.0
 40
11.0
 40
11.0
 40
11.0
 40
12.0
 40
12.0
 40
12.0
 40
13.0
 40
13.0
 40
13.0
 40
14.0
 40
14.0
 40
14.0
 40
15.0
 40
15.0
 40
15.0
 40
16.0
 40
16.0
 40
16.0
 40
17.0
 40
17.0
 40
17.0
 40
18.0
 40
18.0
 40
18.0
 40
18.0
 10
3.062689887152775
 20
9.168088107638887
 30
0.0
 10
3.735172526041666
 20
7.739062499999997
 30
0.0
 10
4.110687934027776
 20
6.116422526041666
 30
0.0
 10
4.189236111111108
 20
4.299479166666666
 30
0.0
 10
4.189236111111108
 20
4.299479166666666
 30
0.0
 10
2.866319444444443
 20
4.299479166666666
 30
0.0
 10
2.866319444444443
 20
4.299479166666666
 30
0.0
 10
2.720936414930555
 20
5.667871093749997
 30
0.0
 10
2.435682508680555
 20
6.752387152777776
 30
0.0
 10
2.009868706597218
 20
7.553027343749997
 30
0.0
 10
1.584054904513888
 20
8.352978515624997
 30
0.0
 10
0.9839192708333332
 20
8.753298611111111
 30
0.0
 10
0.2101508246527778
 20
8.753298611111111
 30
0.0
 10
-0.7386284722222222
 20
8.753298611111111
 30
0.0
 10
-1.503439670138888
 20
8.010536024305555
 30
0.0
 10
-2.083593749999999
 20
6.526388888888886
 30
0.0
 10
-2.664436848958333
 20
5.042241753472221
 30
0.0
 10
-2.954513888888888
 20
2.767100694444443
 30
0.0
 10
-2.954513888888888
 20
-0.2990342881944444
 30
0.0
 10
-2.954513888888888
 20
-2.811197916666666
 30
0.0
 10
-2.693375651041666
 20
-4.847938368055555
 30
0.0
 10
-2.17041015625
 20
-6.409944661458332
 30
0.0
 10
-1.648133680555553
 20
-7.972639973958332
 30
0.0
 10
-0.8640299479166666
 20
-8.753298611111111
 30
0.0
 10
0.1812120225694444
 20
-8.753298611111111
 30
0.0
 10
1.138948567708333
 20
-8.753298611111111
 30
0.0
 10
1.865174696180553
 20
-7.927853732638887
 30
0.0
 10
2.359201388888884
 20
-6.275585937499998
 30
0.0
 10
2.62998589409722
 20
-5.406043836805555
 30
0.0
 10
2.828423394097221
 20
-4.262272135416666
 30
0.0
 10
2.954513888888888
 20
-2.844270833333331
 30
0.0
 10
2.954513888888888
 20
-2.844270833333331
 30
0.0
 10
4.277430555555555
 20
-2.844270833333331
 30
0.0
 10
4.277430555555555
 20
-2.844270833333331
 30
0.0
 10
4.169943576388888
 20
-5.109765624999996
 30
0.0
 10
3.795117187499998
 20
-7.009391276041665
 30
0.0
 10
3.151573350694443
 20
-8.542458767361106
 30
0.0
 10
2.381249999999999
 20
-10.38834092881943
 30
0.0
 10
1.347721354166665
 20
-11.3109375
 30
0.0
 10
0.0509874131944445
 20
-11.3109375
 30
0.0
 10
-1.07004665798611
 20
-11.3109375
 30
0.0
 10
-2.010557725694444
 20
-10.55577256944443
 30
0.0
 10
-2.771234809027776
 20
-9.04475368923611
 30
0.0
 10
-3.775824652777775
 20
-7.046598307291666
 30
0.0
 10
-4.277430555555555
 20
-3.961170789930555
 30
0.0
 10
-4.277430555555555
 20
0.2115288628472222
 30
0.0
 10
-4.277430555555555
 20
3.379638671874998
 30
0.0
 10
-3.902604166666666
 20
5.977929687499997
 30
0.0
 10
-3.151573350694443
 20
8.005712890624996
 30
0.0
 10
-2.333018663194443
 20
10.20919596354165
 30
0.0
 10
-1.20647243923611
 20
11.3109375
 30
0.0
 10
0.2266872829861111
 20
11.3109375
 30
0.0
 10
1.444873046875
 20
11.3109375
 30
0.0
 10
2.390207248263884
 20
10.59642469618055
 30
0.0
 10
3.062689887152775
 20
9.168088107638887
 30
0.0
  0
ENDBLK
  5
576
330
573
100
AcDbEntity
  8
0
100
AcDbBlockEnd
  0
BLOCK
  5
57A
330
577
100
AcDbEntity
  8
0
 62
     7
100
AcDbBlockBegin
  2
AI9-BLK5
 70
     0
 10
0.0
 20
0.0
 30
0.0
  3
AI9-BLK5
  1

  0
SPLINE
  5
578
330
577
100
AcDbEntity
  8
LAYER_1
 62
     7
100
AcDbSpline
210
0.0
220
0.0
230
1.0
 70
    11
 71
     3
 72
    32
 73
    28
 74
     0
 42
0.0000000001
 43
0.0000000001
 40
0.0
 40
0.0
 40
0.0
 40
0.0
 40
1.0
 40
1.0
 40
1.0
 40
2.0
 40
2.0
 40
2.0
 40
3.0
 40
3.0
 40
3.0
 40
4.0
 40
4.0
 40
4.0
 40
5.0
 40
5.0
 40
5.0
 40
6.0
 40
6.0
 40
6.0
 40
7.0
 40
7.0
 40
7.0
 40
8.0
 40
8.0
 40
8.0
 40
9.0
 40
9.0
 40
9.0
 40
9.0
 10
-2.62378472222222
 20
-8.268229166666666
 30
0.0
 10
-2.62378472222222
 20
-8.268229166666666
 30
0.0
 10
-2.62378472222222
 20
8.180034722222217
 30
0.0
 10
-2.62378472222222
 20
8.180034722222217
 30
0.0
 10
-2.62378472222222
 20
8.180034722222217
 30
0.0
 10
-0.3376193576388888
 20
8.180034722222217
 30
0.0
 10
-0.3376193576388888
 20
8.180034722222217
 30
0.0
 10
0.6972873263888888
 20
8.180034722222217
 30
0.0
 10
1.449007161458333
 20
7.445540364583332
 30
0.0
 10
1.918918185763885
 20
5.977929687499997
 30
0.0
 10
2.388829210069443
 20
4.510319010416666
 30
0.0
 10
2.62378472222222
 20
2.449462890624999
 30
0.0
 10
2.62378472222222
 20
-0.204638671875
 30
0.0
 10
2.62378472222222
 20
-0.8950358072916666
 30
0.0
 10
2.590022786458332
 20
-1.643310546874999
 30
0.0
 10
2.523187934027772
 20
-2.45015190972222
 30
0.0
 10
2.408121744791666
 20
-3.80200737847222
 30
0.0
 10
2.226220703124999
 20
-4.909950086805555
 30
0.0
 10
1.976795789930553
 20
-5.774669053819441
 30
0.0
 10
1.659847005208333
 20
-6.853672960069442
 30
0.0
 10
1.252636718749998
 20
-7.583344184027778
 30
0.0
 10
0.7544759114583333
 20
-7.962304687499997
 30
0.0
 10
0.4664659288194444
 20
-8.166254340277777
 30
0.0
 10
0.1074869791666666
 20
-8.268229166666666
 30
0.0
 10
-0.3231499565972222
 20
-8.268229166666666
 30
0.0
 10
-0.3231499565972222
 20
-8.268229166666666
 30
0.0
 10
-2.62378472222222
 20
-8.268229166666666
 30
0.0
 10
-2.62378472222222
 20
-8.268229166666666
 30
0.0
  0
SPLINE
  5
579
330
577
100
AcDbEntity
  8
LAYER_1
 62
     7
100
AcDbSpline
210
0.0
220
0.0
230
1.0
 70
    11
 71
     3
 72
    26
 73
    22
 74
     0
 42
0.0000000001
 43
0.0000000001
 40
0.0
 40
0.0
 40
0.0
 40
0.0
 40
1.0
 40
1.0
 40
1.0
 40
2.0
 40
2.0
 40
2.0
 40
3.0
 40
3.0
 40
3.0
 40
4.0
 40
4.0
 40
4.0
 40
5.0
 40
5.0
 40
5.0
 40
6.0
 40
6.0
 40
6.0
 40
7.0
 40
7.0
 40
7.0
 40
7.0
 10
-3.946701388888888
 20
-10.7376736111111
 30
0.0
 10
-3.946701388888888
 20
-10.7376736111111
 30
0.0
 10
-0.0943956163194444
 20
-10.7376736111111
 30
0.0
 10
-0.0943956163194444
 20
-10.7376736111111
 30
0.0
 10
1.546847873263885
 20
-10.7376736111111
 30
0.0
 10
2.705777994791666
 20
-9.11021050347222
 30
0.0
 10
3.381705729166666
 20
-5.854595269097222
 30
0.0
 10
3.757910156249999
 20
-4.01284722222222
 30
0.0
 10
3.946701388888888
 20
-1.951991102430555
 30
0.0
 10
3.946701388888888
 20
0.328662109375
 30
0.0
 10
3.946701388888888
 20
3.281797960069443
 30
0.0
 10
3.622862413194443
 20
5.703700086805552
 30
0.0
 10
2.976562499999998
 20
7.594368489583332
 30
0.0
 10
2.25171440972222
 20
9.689675564236106
 30
0.0
 10
1.233344184027777
 20
10.7376736111111
 30
0.0
 10
-0.0799262152777778
 20
10.7376736111111
 30
0.0
 10
-0.0799262152777778
 20
10.7376736111111
 30
0.0
 10
-3.946701388888888
 20
10.7376736111111
 30
0.0
 10
-3.946701388888888
 20
10.7376736111111
 30
0.0
 10
-3.946701388888888
 20
10.7376736111111
 30
0.0
 10
-3.946701388888888
 20
-10.7376736111111
 30
0.0
 10
-3.946701388888888
 20
-10.7376736111111
 30
0.0
  0
ENDBLK
  5
57B
330
577
100
AcDbEntity
  8
0
100
AcDbBlockEnd
  0
BLOCK
  5
57F
330
57C
100
AcDbEntity
  8
0
 62
     7
100
AcDbBlockBegin
  2
AI9-BLK4
 70
     0
 10
0.0
 20
0.0
 30
0.0
  3
AI9-BLK4
  1

  0
SPLINE
  5
57D
330
57C
100
AcDbEntity
  8
LAYER_1
 62
     7
100
AcDbSpline
210
0.0
220
0.0
230
1.0
 70
    11
 71
     3
 72
    26
 73
    22
 74
     0
 42
0.0000000001
 43
0.0000000001
 40
0.0
 40
0.0
 40
0.0
 40
0.0
 40
1.0
 40
1.0
 40
1.0
 40
2.0
 40
2.0
 40
2.0
 40
3.0
 40
3.0
 40
3.0
 40
4.0
 40
4.0
 40
4.0
 40
5.0
 40
5.0
 40
5.0
 40
6.0
 40
6.0
 40
6.0
 40
7.0
 40
7.0
 40
7.0
 40
7.0
 10
-2.645833333333333
 20
0.9039930555555551
 30
0.0
 10
-2.645833333333333
 20
0.9039930555555551
 30
0.0
 10
-2.645833333333333
 20
8.180034722222217
 30
0.0
 10
-2.645833333333333
 20
8.180034722222217
 30
0.0
 10
-2.645833333333333
 20
8.180034722222217
 30
0.0
 10
0.465087890625
 20
8.180034722222217
 30
0.0
 10
0.465087890625
 20
8.180034722222217
 30
0.0
 10
0.9026150173611108
 20
8.180034722222217
 30
0.0
 10
1.24988064236111
 20
8.034651692708331
 30
0.0
 10
1.506884765625
 20
7.745263671874997
 30
0.0
 10
2.001600477430554
 20
7.194048394097221
 30
0.0
 10
2.248958333333332
 20
6.160519748263887
 30
0.0
 10
2.248958333333332
 20
4.643299696180553
 30
0.0
 10
2.248958333333332
 20
3.232188585069443
 30
0.0
 10
2.072569444444444
 20
2.256537543402775
 30
0.0
 10
1.720480685763888
 20
1.715657552083333
 30
0.0
 10
1.368391927083333
 20
1.174088541666665
 30
0.0
 10
0.8929687499999998
 20
0.9039930555555551
 30
0.0
 10
0.2942111545138888
 20
0.9039930555555551
 30
0.0
 10
0.2942111545138888
 20
0.9039930555555551
 30
0.0
 10
-2.645833333333333
 20
0.9039930555555551
 30
0.0
 10
-2.645833333333333
 20
0.9039930555555551
 30
0.0
  0
SPLINE
  5
57E
330
57C
100
AcDbEntity
  8
LAYER_1
 62
     7
100
AcDbSpline
210
0.0
220
0.0
230
1.0
 70
    11
 71
     3
 72
    68
 73
    64
 74
     0
 42
0.0000000001
 43
0.0000000001
 40
0.0
 40
0.0
 40
0.0
 40
0.0
 40
1.0
 40
1.0
 40
1.0
 40
2.0
 40
2.0
 40
2.0
 40
3.0
 40
3.0
 40
3.0
 40
4.0
 40
4.0
 40
4.0
 40
5.0
 40
5.0
 40
5.0
 40
6.0
 40
6.0
 40
6.0
 40
7.0
 40
7.0
 40
7.0
 40
8.0
 40
8.0
 40
8.0
 40
9.0
 40
9.0
 40
9.0
 40
10.0
 40
10.0
 40
10.0
 40
11.0
 40
11.0
 40
11.0
 40
12.0
 40
12.0
 40
12.0
 40
13.0
 40
13.0
 40
13.0
 40
14.0
 40
14.0
 40
14.0
 40
15.0
 40
15.0
 40
15.0
 40
16.0
 40
16.0
 40
16.0
 40
17.0
 40
17.0
 40
17.0
 40
18.0
 40
18.0
 40
18.0
 40
19.0
 40
19.0
 40
19.0
 40
20.0
 40
20.0
 40
20.0
 40
21.0
 40
21.0
 40
21.0
 40
21.0
 10
-3.968749999999998
 20
-10.7376736111111
 30
0.0
 10
-3.968749999999998
 20
-10.7376736111111
 30
0.0
 10
-2.645833333333333
 20
-10.7376736111111
 30
0.0
 10
-2.645833333333333
 20
-10.7376736111111
 30
0.0
 10
-2.645833333333333
 20
-10.7376736111111
 30
0.0
 10
-2.645833333333333
 20
-1.521354166666665
 30
0.0
 10
-2.645833333333333
 20
-1.521354166666665
 30
0.0
 10
-2.645833333333333
 20
-1.521354166666665
 30
0.0
 10
0.2390896267361111
 20
-1.521354166666665
 30
0.0
 10
0.2390896267361111
 20
-1.521354166666665
 30
0.0
 10
0.7599880642361111
 20
-1.521354166666665
 30
0.0
 10
1.143771701388887
 20
-1.65295681423611
 30
0.0
 10
1.390440538194444
 20
-1.916162109374999
 30
0.0
 10
1.816254340277773
 20
-2.39434136284722
 30
0.0
 10
2.04363064236111
 20
-3.335541449652775
 30
0.0
 10
2.072569444444444
 20
-4.739762369791666
 30
0.0
 10
2.072569444444444
 20
-4.739762369791666
 30
0.0
 10
2.160763888888888
 20
-8.324039713541665
 30
0.0
 10
2.160763888888888
 20
-8.324039713541665
 30
0.0
 10
2.18005642361111
 20
-9.163264973958332
 30
0.0
 10
2.202794053819443
 20
-9.728949652777775
 30
0.0
 10
2.227598741319444
 20
-10.02109374999998
 30
0.0
 10
2.252403428819443
 20
-10.31392686631944
 30
0.0
 10
2.28892144097222
 20
-10.55301649305555
 30
0.0
 10
2.33853081597222
 20
-10.7376736111111
 30
0.0
 10
2.33853081597222
 20
-10.7376736111111
 30
0.0
 10
3.968749999999998
 20
-10.7376736111111
 30
0.0
 10
3.968749999999998
 20
-10.7376736111111
 30
0.0
 10
3.968749999999998
 20
-10.7376736111111
 30
0.0
 10
3.968749999999998
 20
-10.25260416666666
 30
0.0
 10
3.968749999999998
 20
-10.25260416666666
 30
0.0
 10
3.766867404513888
 20
-10.05830078125
 30
0.0
 10
3.625618489583333
 20
-9.621462673611112
 30
0.0
 10
3.545692274305555
 20
-8.942089843749997
 30
0.0
 10
3.49470486111111
 20
-8.543836805555555
 30
0.0
 10
3.459564887152775
 20
-7.937499999999999
 30
0.0
 10
3.439583333333333
 20
-7.121701388888887
 30
0.0
 10
3.439583333333333
 20
-7.121701388888887
 30
0.0
 10
3.395486111111106
 20
-4.232644314236106
 30
0.0
 10
3.395486111111106
 20
-4.232644314236106
 30
0.0
 10
3.375504557291666
 20
-2.981385633680555
 30
0.0
 10
3.26870659722222
 20
-2.077392578125
 30
0.0
 10
3.075781249999999
 20
-1.522043185763888
 30
0.0
 10
2.882166883680555
 20
-0.9666937934027776
 30
0.0
 10
2.592089843749999
 20
-0.5188313802083333
 30
0.0
 10
2.204861111111104
 20
-0.1770779079861111
 30
0.0
 10
2.63618706597222
 20
0.3197048611111111
 30
0.0
 10
2.971739366319443
 20
0.9770290798611107
 30
0.0
 10
3.211518012152775
 20
1.79558376736111
 30
0.0
 10
3.451296657986107
 20
2.613449435763888
 30
0.0
 10
3.571874999999999
 20
3.66558159722222
 30
0.0
 10
3.571874999999999
 20
4.951291232638888
 30
0.0
 10
3.571874999999999
 20
7.415912543402777
 30
0.0
 10
3.124701605902775
 20
9.106076388888887
 30
0.0
 10
2.231043836805555
 20
10.02178276909722
 30
0.0
 10
1.759754774305553
 20
10.498583984375
 30
0.0
 10
1.163753255208332
 20
10.7376736111111
 30
0.0
 10
0.443039279513889
 20
10.7376736111111
 30
0.0
 10
0.443039279513889
 20
10.7376736111111
 30
0.0
 10
-3.968749999999998
 20
10.7376736111111
 30
0.0
 10
-3.968749999999998
 20
10.7376736111111
 30
0.0
 10
-3.968749999999998
 20
10.7376736111111
 30
0.0
 10
-3.968749999999998
 20
-10.7376736111111
 30
0.0
 10
-3.968749999999998
 20
-10.7376736111111
 30
0.0
  0
ENDBLK
  5
580
330
57C
100
AcDbEntity
  8
0
100
AcDbBlockEnd
  0
BLOCK
  5
584
330
581
100
AcDbEntity
  8
0
 62
     7
100
AcDbBlockBegin
  2
AI9-BLK3
 70
     0
 10
0.0
 20
0.0
 30
0.0
  3
AI9-BLK3
  1

  0
LWPOLYLINE
  5
582
330
581
100
AcDbEntity
  8
LAYER_1
 62
     7
100
AcDbPolyline
 90
        4
 70
     1
 43
0.0
 10
-0.6613722059461809
 20
10.7376736111111
 10
0.6613722059461809
 20
10.7376736111111
 10
0.6613722059461809
 20
-10.7376736111111
 10
-0.6613722059461809
 20
-10.7376736111111
  0
HATCH
  5
583
330
581
100
AcDbEntity
  8
LAYER_1
 62
     7
100
AcDbHatch
 10
0.0
 20
0.0
 30
0.0
210
0.0
220
0.0
230
1.0
  2
SOLID
 70
     1
 71
     0
 91
        1
 92
        3
 72
     0
 73
     1
 93
        4
 10
-0.6613722059461809
 20
10.7376736111111
 10
0.6613722059461809
 20
10.7376736111111
 10
0.6613722059461809
 20
-10.7376736111111
 10
-0.6613722059461809
 20
-10.7376736111111
 97
        0
 75
     2
 76
     1
 98
        1
 10
0.0
 20
0.0
  0
ENDBLK
  5
585
330
581
100
AcDbEntity
  8
0
100
AcDbBlockEnd
  0
BLOCK
  5
589
330
586
100
AcDbEntity
  8
0
 62
     7
100
AcDbBlockBegin
  2
AI9-BLK2
 70
     0
 10
0.0
 20
0.0
 30
0.0
  3
AI9-BLK2
  1

  0
LWPOLYLINE
  5
587
330
586
100
AcDbEntity
  8
LAYER_1
 62
     7
100
AcDbPolyline
 90
        7
 70
     1
 43
0.0
 10
-2.785704210069443
 20
10.7376736111111
 10
0.0
 20
-7.550960286458332
 10
2.771234809027776
 20
10.7376736111111
 10
4.233333333333331
 20
10.7376736111111
 10
0.6910861545138888
 20
-10.7376736111111
 10
-0.7055555555555558
 20
-10.7376736111111
 10
-4.233333333333331
 20
10.7376736111111
  0
HATCH
  5
588
330
586
100
AcDbEntity
  8
LAYER_1
 62
     7
100
AcDbHatch
 10
0.0
 20
0.0
 30
0.0
210
0.0
220
0.0
230
1.0
  2
SOLID
 70
     1
 71
     0
 91
        1
 92
        3
 72
     0
 73
     1
 93
        7
 10
-2.785704210069443
 20
10.7376736111111
 10
0.0
 20
-7.550960286458332
 10
2.771234809027776
 20
10.7376736111111
 10
4.233333333333331
 20
10.7376736111111
 10
0.6910861545138888
 20
-10.7376736111111
 10
-0.7055555555555558
 20
-10.7376736111111
 10
-4.233333333333331
 20
10.7376736111111
 97
        0
 75
     2
 76
     1
 98
        1
 10
0.0
 20
0.0
  0
ENDBLK
  5
58A
330
586
100
AcDbEntity
  8
0
100
AcDbBlockEnd
  0
BLOCK
  5
58E
330
58B
100
AcDbEntity
  8
0
 62
     7
100
AcDbBlockBegin
  2
AI9-BLK1
 70
     0
 10
0.0
 20
0.0
 30
0.0
  3
AI9-BLK1
  1

  0
LWPOLYLINE
  5
58C
330
58B
100
AcDbEntity
  8
LAYER_1
 62
     7
100
AcDbPolyline
 90
       12
 70
     1
 43
0.0
 10
-3.571874999999999
 20
10.7376736111111
 10
3.483680555555555
 20
10.7376736111111
 10
3.483680555555555
 20
8.091840277777777
 10
-2.248958333333332
 20
8.091840277777777
 10
-2.248958333333332
 20
1.565451388888888
 10
3.042708333333333
 20
1.565451388888888
 10
3.042708333333333
 20
-0.9039930555555551
 10
-2.248958333333332
 20
-0.9039930555555551
 10
-2.248958333333332
 20
-8.180034722222217
 10
3.571874999999999
 20
-8.180034722222217
 10
3.571874999999999
 20
-10.7376736111111
 10
-3.571874999999999
 20
-10.7376736111111
  0
HATCH
  5
58D
330
58B
100
AcDbEntity
  8
LAYER_1
 62
     7
100
AcDbHatch
 10
0.0
 20
0.0
 30
0.0
210
0.0
220
0.0
230
1.0
  2
SOLID
 70
     1
 71
     0
 91
        1
 92
        3
 72
     0
 73
     1
 93
       12
 10
-3.571874999999999
 20
10.7376736111111
 10
3.483680555555555
 20
10.7376736111111
 10
3.483680555555555
 20
8.091840277777777
 10
-2.248958333333332
 20
8.091840277777777
 10
-2.248958333333332
 20
1.565451388888888
 10
3.042708333333333
 20
1.565451388888888
 10
3.042708333333333
 20
-0.9039930555555551
 10
-2.248958333333332
 20
-0.9039930555555551
 10
-2.248958333333332
 20
-8.180034722222217
 10
3.571874999999999
 20
-8.180034722222217
 10
3.571874999999999
 20
-10.7376736111111
 10
-3.571874999999999
 20
-10.7376736111111
 97
        0
 75
     2
 76
     1
 98
        1
 10
0.0
 20
0.0
  0
ENDBLK
  5
58F
330
58B
100
AcDbEntity
  8
0
100
AcDbBlockEnd
  0
BLOCK
  5
5B3
330
590
100
AcDbEntity
  8
0
100
AcDbBlockBegin
  2
HD_LLC_logo_OT5
 70
     0
 10
0.0
 20
0.0
 30
0.0
  3
HD_LLC_logo_OT5
  1

  0
SPLINE
  5
591
102
{ACAD_REACTORS
330
5B1
102
}
330
590
100
AcDbEntity
  8
LAYER_1
 62
     7
100
AcDbSpline
210
0.0
220
0.0
230
1.0
 70
    11
 71
     3
 72
   113
 73
   109
 74
     0
 42
0.0000000001
 43
0.0000000001
 40
0.0
 40
0.0
 40
0.0
 40
0.0
 40
1.0
 40
1.0
 40
1.0
 40
2.0
 40
2.0
 40
2.0
 40
3.0
 40
3.0
 40
3.0
 40
4.0
 40
4.0
 40
4.0
 40
5.0
 40
5.0
 40
5.0
 40
6.0
 40
6.0
 40
6.0
 40
7.0
 40
7.0
 40
7.0
 40
8.0
 40
8.0
 40
8.0
 40
9.0
 40
9.0
 40
9.0
 40
10.0
 40
10.0
 40
10.0
 40
11.0
 40
11.0
 40
11.0
 40
12.0
 40
12.0
 40
12.0
 40
13.0
 40
13.0
 40
13.0
 40
14.0
 40
14.0
 40
14.0
 40
15.0
 40
15.0
 40
15.0
 40
16.0
 40
16.0
 40
16.0
 40
17.0
 40
17.0
 40
17.0
 40
18.0
 40
18.0
 40
18.0
 40
19.0
 40
19.0
 40
19.0
 40
20.0
 40
20.0
 40
20.0
 40
21.0
 40
21.0
 40
21.0
 40
22.0
 40
22.0
 40
22.0
 40
23.0
 40
23.0
 40
23.0
 40
24.0
 40
24.0
 40
24.0
 40
25.0
 40
25.0
 40
25.0
 40
26.0
 40
26.0
 40
26.0
 40
27.0
 40
27.0
 40
27.0
 40
28.0
 40
28.0
 40
28.0
 40
29.0
 40
29.0
 40
29.0
 40
30.0
 40
30.0
 40
30.0
 40
31.0
 40
31.0
 40
31.0
 40
32.0
 40
32.0
 40
32.0
 40
33.0
 40
33.0
 40
33.0
 40
34.0
 40
34.0
 40
34.0
 40
35.0
 40
35.0
 40
35.0
 40
36.0
 40
36.0
 40
36.0
 40
36.0
 10
193.3039632161458
 20
186.1548733181423
 30
0.0
 10
193.3039632161458
 20
186.1860514322916
 30
0.0
 10
193.3039632161458
 20
219.6932223849826
 30
0.0
 10
193.3039632161458
 20
219.6932223849826
 30
0.0
 10
193.3039632161458
 20
219.6932223849826
 30
0.0
 10
193.2974175347219
 20
219.7488606770833
 30
0.0
 10
193.2974175347219
 20
219.7488606770833
 30
0.0
 10
191.5293945312499
 20
235.455740017361
 30
0.0
 10
175.1458984374999
 20
235.2467949761284
 30
0.0
 10
174.9808783637151
 20
235.2428331163193
 30
0.0
 10
174.9808783637151
 20
235.2428331163193
 30
0.0
 10
125.8827555338541
 20
235.2430053710937
 30
0.0
 10
125.8827555338541
 20
235.2430053710937
 30
0.0
 10
125.8827555338541
 20
235.2430053710937
 30
0.0
 10
125.8827555338541
 20
255.5278998480901
 30
0.0
 10
125.8827555338541
 20
255.5278998480901
 30
0.0
 10
125.8827555338541
 20
255.5278998480901
 30
0.0
 10
84.5626247829861
 20
255.5278998480901
 30
0.0
 10
84.5626247829861
 20
255.5278998480901
 30
0.0
 10
84.5626247829861
 20
255.5278998480901
 30
0.0
 10
84.55711263020829
 20
233.7919311523436
 30
0.0
 10
84.55711263020829
 20
233.7919311523436
 30
0.0
 10
84.55711263020829
 20
233.7919311523436
 30
0.0
 10
64.42052951388888
 20
233.7919311523436
 30
0.0
 10
64.42052951388888
 20
233.7919311523436
 30
0.0
 10
64.42052951388888
 20
233.7919311523436
 30
0.0
 10
64.41501736111111
 20
255.5278998480901
 30
0.0
 10
64.41501736111111
 20
255.5278998480901
 30
0.0
 10
64.41501736111111
 20
255.5278998480901
 30
0.0
 10
23.91757541232637
 20
255.5278998480901
 30
0.0
 10
23.91757541232637
 20
255.5278998480901
 30
0.0
 10
23.91757541232637
 20
255.5278998480901
 30
0.0
 10
23.91757541232637
 20
233.2393378363715
 30
0.0
 10
23.91757541232637
 20
233.2393378363715
 30
0.0
 10
23.91757541232637
 20
233.2393378363715
 30
0.0
 10
43.65624999999999
 20
233.2393378363715
 30
0.0
 10
43.65624999999999
 20
233.2393378363715
 30
0.0
 10
43.65624999999999
 20
233.2393378363715
 30
0.0
 10
43.65624999999999
 20
211.5188720703125
 30
0.0
 10
43.65624999999999
 20
211.5188720703125
 30
0.0
 10
43.65624999999999
 20
211.5188720703125
 30
0.0
 10
23.91757541232637
 20
211.5188720703125
 30
0.0
 10
23.91757541232637
 20
211.5188720703125
 30
0.0
 10
23.91757541232637
 20
211.5188720703125
 30
0.0
 10
23.91757541232637
 20
189.2303100585936
 30
0.0
 10
23.91757541232637
 20
189.2303100585936
 30
0.0
 10
23.91757541232637
 20
189.2303100585936
 30
0.0
 10
64.41501736111111
 20
189.2303100585936
 30
0.0
 10
64.41501736111111
 20
189.2303100585936
 30
0.0
 10
64.41501736111111
 20
189.2303100585936
 30
0.0
 10
64.42052951388888
 20
211.069976128472
 30
0.0
 10
64.42052951388888
 20
211.069976128472
 30
0.0
 10
64.42052951388888
 20
211.069976128472
 30
0.0
 10
84.55711263020829
 20
211.069976128472
 30
0.0
 10
84.55711263020829
 20
211.069976128472
 30
0.0
 10
84.55711263020829
 20
211.069976128472
 30
0.0
 10
84.5626247829861
 20
189.2303100585936
 30
0.0
 10
84.5626247829861
 20
189.2303100585936
 30
0.0
 10
84.5626247829861
 20
189.2303100585936
 30
0.0
 10
125.8827555338541
 20
189.2303100585936
 30
0.0
 10
125.8827555338541
 20
189.2303100585936
 30
0.0
 10
125.8827555338541
 20
189.2303100585936
 30
0.0
 10
125.8827555338541
 20
211.5188720703125
 30
0.0
 10
125.8827555338541
 20
211.5188720703125
 30
0.0
 10
125.8827555338541
 20
211.5188720703125
 30
0.0
 10
105.3213921440971
 20
211.5188720703125
 30
0.0
 10
105.3213921440971
 20
211.5188720703125
 30
0.0
 10
105.3213921440971
 20
211.5188720703125
 30
0.0
 10
105.3213921440971
 20
233.2393378363715
 30
0.0
 10
105.3213921440971
 20
233.2393378363715
 30
0.0
 10
105.3213921440971
 20
233.2393378363715
 30
0.0
 10
175.0046495225693
 20
233.243127441406
 30
0.0
 10
175.0046495225693
 20
233.243127441406
 30
0.0
 10
175.6268337673611
 20
233.2560465494791
 30
0.0
 10
189.7165852864583
 20
233.3962619357638
 30
0.0
 10
191.3037407769094
 20
219.5690266927083
 30
0.0
 10
191.3037407769094
 20
219.4332899305555
 30
0.0
 10
191.3037407769094
 20
186.1142211914062
 30
0.0
 10
191.3037407769094
 20
186.1142211914062
 30
0.0
 10
191.3037407769094
 20
186.1142211914062
 30
0.0
 10
191.3051188151039
 20
186.0880384657115
 30
0.0
 10
191.3051188151039
 20
186.0880384657115
 30
0.0
 10
191.3054633246526
 20
186.0787367078991
 30
0.0
 10
191.3109754774304
 20
185.9566080729166
 30
0.0
 10
191.3109754774304
 20
185.7399115668401
 30
0.0
 10
191.3109754774304
 20
184.2090833875865
 30
0.0
 10
191.0488037109374
 20
177.9643310546874
 30
0.0
 10
186.9866916232638
 20
173.5652886284722
 30
0.0
 10
184.2540418836804
 20
170.6064683702255
 30
0.0
 10
180.3224989149304
 20
169.0308539496526
 30
0.0
 10
175.300927734375
 20
168.8825425889756
 30
0.0
 10
175.300927734375
 20
168.8825425889756
 30
0.0
 10
107.0094889322916
 20
168.8828870985243
 30
0.0
 10
107.0094889322916
 20
168.8828870985243
 30
0.0
 10
107.0094889322916
 20
168.8828870985243
 30
0.0
 10
107.0094889322916
 20
166.8830091688368
 30
0.0
 10
107.0094889322916
 20
166.8830091688368
 30
0.0
 10
107.0094889322916
 20
166.8830091688368
 30
0.0
 10
175.3305555555555
 20
166.8830091688368
 30
0.0
 10
175.3305555555555
 20
166.8830091688368
 30
0.0
 10
180.9467502170138
 20
167.0485460069444
 30
0.0
 10
185.3571614583333
 20
168.8448187934026
 30
0.0
 10
188.4687717013888
 20
172.2223904079861
 30
0.0
 10
192.9649658203124
 20
177.1034016927083
 30
0.0
 10
193.3136094835069
 20
183.7202243381076
 30
0.0
 10
193.3136094835069
 20
185.6520616319443
 30
0.0
 10
193.3136094835069
 20
185.9247409396701
 30
0.0
 10
193.3070638020833
 20
186.0868326822916
 30
0.0
 10
193.3039632161458
 20
186.1548733181423
 30
0.0
  0
INSERT
  5
592
102
{ACAD_REACTORS
330
5B2
102
}
330
590
100
AcDbEntity
  8
LAYER_1
 62
     7
100
AcDbBlockReference
  2
AI9-BLK14
 10
159.5625257703993
 20
200.5118781195744
 30
0.0
  0
INSERT
  5
593
330
590
100
AcDbEntity
  8
LAYER_1
 62
     7
100
AcDbBlockReference
  2
AI9-BLK13
 10
27.69615614149305
 20
179.2145562065971
 30
0.0
 42
0.9200000000000001
  0
INSERT
  5
594
102
{ACAD_REACTORS
330
59F
102
}
330
590
100
AcDbEntity
  8
LAYER_1
 62
     7
100
AcDbBlockReference
  2
AI9-BLK11
 10
44.76591525607638
 20
179.2145562065971
 30
0.0
 42
0.9200000000000001
  0
INSERT
  5
595
102
{ACAD_REACTORS
330
5AD
102
}
330
590
100
AcDbEntity
  8
LAYER_1
 62
     7
100
AcDbBlockReference
  2
AI9-BLK10
 10
54.04665798611111
 20
179.2145562065971
 30
0.0
 42
0.9200000000000001
  0
INSERT
  5
596
102
{ACAD_REACTORS
330
5AC
102
}
330
590
100
AcDbEntity
  8
LAYER_1
 62
     7
100
AcDbBlockReference
  2
AI9-BLK9
 10
62.79013807508679
 20
179.2145562065971
 30
0.0
 42
0.9
  0
INSERT
  5
597
330
590
100
AcDbEntity
  8
LAYER_1
 62
     7
100
AcDbBlockReference
  2
AI9-BLK8
 10
71.03046196831595
 20
179.2145562065971
 30
0.0
 42
0.9200000000000001
  0
INSERT
  5
598
330
590
100
AcDbEntity
  8
LAYER_1
 62
     7
100
AcDbBlockReference
  2
AI9-BLK7
 10
76.93793945312498
 20
179.2145562065971
 30
0.0
 42
0.9200000000000001
  0
INSERT
  5
599
102
{ACAD_REACTORS
330
5A0
102
}
330
590
100
AcDbEntity
  8
LAYER_1
 62
     7
100
AcDbBlockReference
  2
AI9-BLK6
 10
82.55602891710069
 20
179.2145562065971
 30
0.0
 42
0.9
  0
INSERT
  5
59A
102
{ACAD_REACTORS
330
5AE
102
}
330
590
100
AcDbEntity
  8
LAYER_1
 62
     7
100
AcDbBlockReference
  2
AI9-BLK5
 10
94.32430284288193
 20
179.2145562065971
 30
0.0
 42
0.9200000000000001
  0
INSERT
  5
59B
102
{ACAD_REACTORS
330
5AF
102
}
330
590
100
AcDbEntity
  8
LAYER_1
 62
     7
100
AcDbBlockReference
  2
AI9-BLK4
 10
103.2081705729166
 20
179.2145562065971
 30
0.0
 42
0.9200000000000001
  0
INSERT
  5
59C
330
590
100
AcDbEntity
  8
LAYER_1
 62
     7
100
AcDbBlockReference
  2
AI9-BLK3
 10
108.850978597005
 20
179.2145562065971
 30
0.0
 42
0.9200000000000001
  0
INSERT
  5
59D
330
590
100
AcDbEntity
  8
LAYER_1
 62
     7
100
AcDbBlockReference
  2
AI9-BLK2
 10
114.2045708550346
 20
179.2145562065971
 30
0.0
 42
0.9200000000000001
  0
INSERT
  5
59E
330
590
100
AcDbEntity
  8
LAYER_1
 62
     7
100
AcDbBlockReference
  2
AI9-BLK1
 10
122.4125108506944
 20
179.2145562065971
 30
0.0
 42
0.9200000000000001
  0
HATCH
  5
59F
330
590
100
AcDbEntity
  8
0
  6
Continuous
100
AcDbHatch
 10
0.0
 20
0.0
 30
0.0
210
0.0
220
0.0
230
1.0
  2
SOLID
 70
     1
 71
     1
 91
        2
 92
       16
 93
        1
 72
     4
 94
        3
 73
     0
 74
     0
 95
       26
 96
       22
 40
0.0
 40
0.0
 40
0.0
 40
0.0
 40
1.0
 40
1.0
 40
1.0
 40
2.0
 40
2.0
 40
2.0
 40
3.0
 40
3.0
 40
3.0
 40
4.0
 40
4.0
 40
4.0
 40
5.0
 40
5.0
 40
5.0
 40
6.0
 40
6.0
 40
6.0
 40
7.0
 40
7.0
 40
7.0
 40
7.0
 10
42.12008192274304
 20
180.046229817708
 10
42.12008192274304
 20
180.046229817708
 10
42.12008192274304
 20
186.7401881510414
 10
42.12008192274304
 20
186.7401881510414
 10
42.12008192274304
 20
186.7401881510414
 10
45.23100314670138
 20
186.7401881510414
 10
45.23100314670138
 20
186.7401881510414
 10
45.66853027343749
 20
186.7401881510414
 10
46.01579589843749
 20
186.6064357638887
 10
46.27280002170138
 20
186.3401987847214
 10
46.76751573350694
 20
185.8330807291664
 10
47.01487358940972
 20
184.8822343749995
 10
47.01487358940972
 20
183.4863919270832
 10
47.01487358940972
 20
182.188169704861
 10
46.83848470052082
 20
181.2905707465276
 10
46.48639594184028
 20
180.7929611545137
 10
46.13430718315971
 20
180.2947176649304
 10
45.65888400607638
 20
180.046229817708
 10
45.06012641059028
 20
180.046229817708
 10
45.06012641059028
 20
180.046229817708
 10
42.12008192274304
 20
180.046229817708
 10
42.12008192274304
 20
180.046229817708
 97
        1
330
594
 92
        1
 93
        1
 72
     4
 94
        3
 73
     0
 74
     0
 95
       68
 96
       64
 40
0.0
 40
0.0
 40
0.0
 40
0.0
 40
1.0
 40
1.0
 40
1.0
 40
2.0
 40
2.0
 40
2.0
 40
3.0
 40
3.0
 40
3.0
 40
4.0
 40
4.0
 40
4.0
 40
5.0
 40
5.0
 40
5.0
 40
6.0
 40
6.0
 40
6.0
 40
7.0
 40
7.0
 40
7.0
 40
8.0
 40
8.0
 40
8.0
 40
9.0
 40
9.0
 40
9.0
 40
10.0
 40
10.0
 40
10.0
 40
11.0
 40
11.0
 40
11.0
 40
12.0
 40
12.0
 40
12.0
 40
13.0
 40
13.0
 40
13.0
 40
14.0
 40
14.0
 40
14.0
 40
15.0
 40
15.0
 40
15.0
 40
16.0
 40
16.0
 40
16.0
 40
17.0
 40
17.0
 40
17.0
 40
18.0
 40
18.0
 40
18.0
 40
19.0
 40
19.0
 40
19.0
 40
20.0
 40
20.0
 40
20.0
 40
21.0
 40
21.0
 40
21.0
 40
21.0
 10
40.79716525607638
 20
169.3358964843748
 10
40.79716525607638
 20
169.3358964843748
 10
42.12008192274304
 20
169.3358964843748
 10
42.12008192274304
 20
169.3358964843748
 10
42.12008192274304
 20
169.3358964843748
 10
42.12008192274304
 20
177.8149103732637
 10
42.12008192274304
 20
177.8149103732637
 10
42.12008192274304
 20
177.8149103732637
 10
45.00500488281249
 20
177.8149103732637
 10
45.00500488281249
 20
177.8149103732637
 10
45.52590332031249
 20
177.8149103732637
 10
45.90968695746528
 20
177.6938359374998
 10
46.15635579427083
 20
177.4516870659716
 10
46.58216959635415
 20
177.0117621527776
 10
46.80954589843749
 20
176.1458580729164
 10
46.83848470052082
 20
174.8539748263887
 10
46.83848470052082
 20
174.8539748263887
 10
46.92667914496527
 20
171.5564396701385
 10
46.92667914496527
 20
171.5564396701385
 10
46.94597167968749
 20
170.7843524305554
 10
46.96870930989581
 20
170.2639225260415
 10
46.99351399739582
 20
169.9951499565971
 10
47.01831868489581
 20
169.725743489583
 10
47.0548366970486
 20
169.5057810329859
 10
47.10444607204859
 20
169.3358964843748
 10
47.10444607204859
 20
169.3358964843748
 10
48.73466525607638
 20
169.3358964843748
 10
48.73466525607638
 20
169.3358964843748
 10
48.73466525607638
 20
169.3358964843748
 10
48.73466525607638
 20
169.7821603732633
 10
48.73466525607638
 20
169.7821603732633
 10
48.53278266059028
 20
169.9609194878471
 10
48.39153374565971
 20
170.3628105468748
 10
48.31160753038194
 20
170.9878335503471
 10
48.26062011718749
 20
171.3542263454858
 10
48.22548014322915
 20
171.9120562065971
 10
48.20549858940971
 20
172.6625909288193
 10
48.20549858940971
 20
172.6625909288193
 10
48.16140136718749
 20
175.3205234374999
 10
48.16140136718749
 20
175.3205234374999
 10
48.14141981336803
 20
176.4716814236109
 10
48.03462185329859
 20
177.3033550347219
 10
47.84169650607638
 20
177.814276475694
 10
47.64808213975693
 20
178.3251979166665
 10
47.35800509982638
 20
178.7372313368054
 10
46.97077636718749
 20
179.0516445312498
 10
47.4021023220486
 20
179.5086846788193
 10
47.73765462239582
 20
180.1134229600693
 10
47.97743326822915
 20
180.866493272569
 10
48.21721191406249
 20
181.6189296874999
 10
48.33779025607638
 20
182.5868912760411
 10
48.33779025607638
 20
183.7697441406248
 10
48.33779025607638
 20
186.0371957465273
 10
47.89061686197913
 20
187.5921464843749
 10
46.99695909288194
 20
188.4345963541665
 10
46.52567003038194
 20
188.8732534722221
 10
45.92966851128472
 20
189.0932159288193
 10
45.20895453559027
 20
189.0932159288193
 10
45.20895453559027
 20
189.0932159288193
 10
40.79716525607638
 20
189.0932159288193
 10
40.79716525607638
 20
189.0932159288193
 10
40.79716525607638
 20
189.0932159288193
 10
40.79716525607638
 20
169.3358964843748
 10
40.79716525607638
 20
169.3358964843748
 97
        0
 75
     0
 76
     1
 98
        0
  0
HATCH
  5
5A0
330
590
100
AcDbEntity
  8
0
  6
Continuous
100
AcDbHatch
 10
0.0
 20
0.0
 30
0.0
210
0.0
220
0.0
230
1.0
  2
SOLID
 70
     1
 71
     1
 91
        1
 92
        1
 93
        1
 72
     4
 94
        3
 73
     0
 74
     0
 95
       59
 96
       55
 40
0.0
 40
0.0
 40
0.0
 40
0.0
 40
1.0
 40
1.0
 40
1.0
 40
2.0
 40
2.0
 40
2.0
 40
3.0
 40
3.0
 40
3.0
 40
4.0
 40
4.0
 40
4.0
 40
5.0
 40
5.0
 40
5.0
 40
6.0
 40
6.0
 40
6.0
 40
7.0
 40
7.0
 40
7.0
 40
8.0
 40
8.0
 40
8.0
 40
9.0
 40
9.0
 40
9.0
 40
10.0
 40
10.0
 40
10.0
 40
11.0
 40
11.0
 40
11.0
 40
12.0
 40
12.0
 40
12.0
 40
13.0
 40
13.0
 40
13.0
 40
14.0
 40
14.0
 40
14.0
 40
15.0
 40
15.0
 40
15.0
 40
16.0
 40
16.0
 40
16.0
 40
17.0
 40
17.0
 40
17.0
 40
18.0
 40
18.0
 40
18.0
 40
18.0
 10
85.61871880425345
 20
187.4658355034721
 10
86.29120144314232
 20
186.1797124565971
 10
86.66671685112847
 20
184.7193364800346
 10
86.7452650282118
 20
183.0840874565969
 10
86.7452650282118
 20
183.0840874565969
 10
85.42234836154511
 20
183.0840874565969
 10
85.42234836154511
 20
183.0840874565969
 10
85.27696533203123
 20
184.3156401909719
 10
84.99171142578125
 20
185.2917046440971
 10
84.56589762369791
 20
186.0122808159719
 10
84.14008382161458
 20
186.7322368706594
 10
83.53994818793401
 20
187.0925249565969
 10
82.76617974175342
 20
187.0925249565969
 10
81.81740044487847
 20
187.0925249565969
 10
81.05258924696178
 20
186.4240386284721
 10
80.47243516710068
 20
185.0883062065971
 10
79.89159206814234
 20
183.7525737847219
 10
79.6015150282118
 20
181.7049468315971
 10
79.6015150282118
 20
178.9454253472221
 10
79.6015150282118
 20
176.6844780815969
 10
79.86265326605901
 20
174.8514116753471
 10
80.38561876085069
 20
173.4456060112846
 10
80.90789523654512
 20
172.0391802300344
 10
81.69199896918403
 20
171.3365874565971
 10
82.73724093967013
 20
171.3365874565971
 10
83.69497748480901
 20
171.3365874565971
 10
84.42120361328125
 20
172.0794878472221
 10
84.91523030598958
 20
173.5665288628469
 10
85.18601481119791
 20
174.3491167534719
 10
85.38445231119791
 20
175.3785112847221
 10
85.51054280598959
 20
176.6547124565971
 10
85.51054280598959
 20
176.6547124565971
 10
86.83345947265625
 20
176.6547124565971
 10
86.83345947265625
 20
176.6547124565971
 10
86.72597249348957
 20
174.6157671440971
 10
86.35114610460069
 20
172.9061040581596
 10
85.70760226779514
 20
171.526343315972
 10
84.93727891710069
 20
169.8650493706596
 10
83.90375027126735
 20
169.0347124565971
 10
82.60701633029514
 20
169.0347124565971
 10
81.48598225911458
 20
169.0347124565971
 10
80.54547119140625
 20
169.7143608940971
 10
79.78479410807292
 20
171.0742778862845
 10
78.78020426432292
 20
172.8726177300344
 10
78.27859836154512
 20
175.6495024956596
 10
78.27859836154512
 20
179.4049321831594
 10
78.27859836154512
 20
182.2562310112846
 10
78.65342475043402
 20
184.5946929253469
 10
79.40445556640622
 20
186.4196978081596
 10
80.22301025390625
 20
188.4028325737846
 10
81.34955647786458
 20
189.3943999565971
 10
82.78271620008679
 20
189.3943999565971
 10
84.00090196397568
 20
189.3943999565971
 10
84.94623616536458
 20
188.7513384331594
 10
85.61871880425345
 20
187.4658355034721
 97
        1
330
599
 75
     0
 76
     1
 98
        1
 10
0.0
 20
0.0
  0
LINE
  5
5A1
102
{ACAD_REACTORS
330
5B0
102
}
330
590
100
AcDbEntity
  8
LAYER_1
 62
     7
100
AcDbLine
 10
34.65766059027778
 20
177.4497853732638
 30
0.0
 11
36.19830729166666
 21
186.1658769531249
 31
0.0
  0
LINE
  5
5A2
102
{ACAD_REACTORS
330
5B0
102
}
330
590
100
AcDbEntity
  8
LAYER_1
 62
     7
100
AcDbLine
 10
36.19830729166666
 20
186.1658769531249
 30
0.0
 11
37.67556423611111
 21
177.4497853732638
 31
0.0
  0
LINE
  5
5A3
102
{ACAD_REACTORS
330
5B0
102
}
330
590
100
AcDbEntity
  8
LAYER_1
 62
     7
100
AcDbLine
 10
37.67556423611111
 20
177.4497853732638
 30
0.0
 11
34.65766059027778
 21
177.4497853732638
 31
0.0
  0
LINE
  5
5A4
102
{ACAD_REACTORS
330
5B0
102
}
330
590
100
AcDbEntity
  8
LAYER_1
 62
     7
100
AcDbLine
 10
31.83957248263888
 20
169.3358964843748
 30
0.0
 11
33.22450086805555
 21
169.3358964843748
 31
0.0
  0
LINE
  5
5A5
102
{ACAD_REACTORS
330
5B0
102
}
330
590
100
AcDbEntity
  8
LAYER_1
 62
     7
100
AcDbLine
 10
33.22450086805555
 20
169.3358964843748
 30
0.0
 11
34.27043185763887
 21
175.2590353732638
 31
0.0
  0
LINE
  5
5A6
102
{ACAD_REACTORS
330
5B0
102
}
330
590
100
AcDbEntity
  8
LAYER_1
 62
     7
100
AcDbLine
 10
34.27043185763887
 20
175.2590353732638
 30
0.0
 11
38.04694552951389
 21
175.2590353732638
 31
0.0
  0
LINE
  5
5A7
102
{ACAD_REACTORS
330
5B0
102
}
330
590
100
AcDbEntity
  8
LAYER_1
 62
     7
100
AcDbLine
 10
38.04694552951389
 20
175.2590353732638
 30
0.0
 11
39.05015733506942
 21
169.3358964843748
 31
0.0
  0
LINE
  5
5A8
102
{ACAD_REACTORS
330
5B0
102
}
330
590
100
AcDbEntity
  8
LAYER_1
 62
     7
100
AcDbLine
 10
39.05015733506942
 20
169.3358964843748
 30
0.0
 11
40.43508572048611
 21
169.3358964843748
 31
0.0
  0
LINE
  5
5A9
102
{ACAD_REACTORS
330
5B0
102
}
330
590
100
AcDbEntity
  8
LAYER_1
 62
     7
100
AcDbLine
 10
40.43508572048611
 20
169.3358964843748
 30
0.0
 11
36.952783203125
 21
189.0932159288193
 31
0.0
  0
LINE
  5
5AA
102
{ACAD_REACTORS
330
5B0
102
}
330
590
100
AcDbEntity
  8
LAYER_1
 62
     7
100
AcDbLine
 10
36.952783203125
 20
189.0932159288193
 30
0.0
 11
35.47828233506943
 21
189.0932159288193
 31
0.0
  0
LINE
  5
5AB
102
{ACAD_REACTORS
330
5B0
102
}
330
590
100
AcDbEntity
  8
LAYER_1
 62
     7
100
AcDbLine
 10
35.47828233506943
 20
189.0932159288193
 30
0.0
 11
31.83957248263888
 21
169.3358964843748
 31
0.0
  0
HATCH
  5
5AC
330
590
100
AcDbEntity
  8
0
  6
Continuous
100
AcDbHatch
 10
0.0
 20
0.0
 30
0.0
210
0.0
220
0.0
230
1.0
  2
SOLID
 70
     1
 71
     1
 91
        2
 92
       16
 93
        1
 72
     4
 94
        3
 73
     0
 74
     0
 95
       29
 96
       25
 40
0.0
 40
0.0
 40
0.0
 40
0.0
 40
1.0
 40
1.0
 40
1.0
 40
2.0
 40
2.0
 40
2.0
 40
3.0
 40
3.0
 40
3.0
 40
4.0
 40
4.0
 40
4.0
 40
5.0
 40
5.0
 40
5.0
 40
6.0
 40
6.0
 40
6.0
 40
7.0
 40
7.0
 40
7.0
 40
8.0
 40
8.0
 40
8.0
 40
8.0
 10
62.85697292751734
 20
171.3365874565971
 10
61.88338894314235
 20
171.3365874565971
 10
61.18058946397566
 20
172.0714263237844
 10
60.74857449001735
 20
173.5411040581594
 10
60.31587049696178
 20
175.0107817925344
 10
60.10020751953123
 20
176.8165630425341
 10
60.10020751953123
 20
178.9578276909721
 10
60.10020751953123
 20
181.6342534722221
 10
60.35101047092013
 20
183.6589360894094
 10
60.85261637369789
 20
185.0324956597219
 10
61.35422227647566
 20
186.4054351128471
 10
62.00741238064235
 20
187.0925249565969
 10
62.81218668619789
 20
187.0925249565969
 10
63.6369425455729
 20
187.0925249565969
 10
64.28806559244789
 20
186.3992339409721
 10
64.76486680772568
 20
185.0126519097221
 10
65.24166802300347
 20
183.6260698784719
 10
65.48006863064235
 20
181.7961040581594
 10
65.48006863064235
 20
179.5239946831596
 10
65.48006863064235
 20
177.3734282769096
 10
65.27336290147568
 20
175.4715288628466
 10
64.86132948133678
 20
173.8176763237846
 10
64.4492960611979
 20
172.1632036675344
 10
63.78094753689235
 20
171.3365874565971
 10
62.85697292751734
 20
171.3365874565971
 97
        1
330
596
 92
        1
 93
        1
 72
     4
 94
        3
 73
     0
 74
     0
 95
       29
 96
       25
 40
0.0
 40
0.0
 40
0.0
 40
0.0
 40
1.0
 40
1.0
 40
1.0
 40
2.0
 40
2.0
 40
2.0
 40
3.0
 40
3.0
 40
3.0
 40
4.0
 40
4.0
 40
4.0
 40
5.0
 40
5.0
 40
5.0
 40
6.0
 40
6.0
 40
6.0
 40
7.0
 40
7.0
 40
7.0
 40
8.0
 40
8.0
 40
8.0
 40
8.0
 10
62.76119927300346
 20
189.4340874565971
 10
61.47273356119789
 20
189.4340874565971
 10
60.50121663411457
 20
188.2397417534719
 10
59.84733751085068
 20
185.8516704644094
 10
59.3395304361979
 20
183.9900786675344
 10
59.08597140842012
 20
181.7514556206596
 10
59.08597140842012
 20
179.1351812065971
 10
59.08597140842012
 20
176.2379937065971
 10
59.3836276584201
 20
173.8412407769094
 10
59.9789401584201
 20
171.9449224175346
 10
60.6424655490451
 20
169.9779106987846
 10
61.5602389865451
 20
168.9950249565971
 10
62.7315714518229
 20
168.9950249565971
 10
63.9904093424479
 20
168.9950249565971
 10
64.95641411675345
 20
170.1186773003469
 10
65.63027479383679
 20
172.3659819878471
 10
66.20629475911457
 20
174.2796636284719
 10
66.49430474175345
 20
176.6813774956589
 10
66.49430474175345
 20
179.5698833550344
 10
66.49430474175345
 20
182.2388677300341
 10
66.24005669487845
 20
184.4291216362844
 10
65.73293863932289
 20
186.1412651909719
 10
65.08870578342011
 20
188.3364800347219
 10
64.09789632161457
 20
189.4340874565971
 10
62.76119927300346
 20
189.4340874565971
 97
        0
 75
     0
 76
     1
 98
        0
  0
HATCH
  5
5AD
330
590
100
AcDbEntity
  8
0
  6
Continuous
100
AcDbHatch
 10
0.0
 20
0.0
 30
0.0
210
0.0
220
0.0
230
1.0
  2
SOLID
 70
     1
 71
     1
 91
        1
 92
        1
 93
        1
 72
     4
 94
        3
 73
     0
 74
     0
 95
       59
 96
       55
 40
0.0
 40
0.0
 40
0.0
 40
0.0
 40
1.0
 40
1.0
 40
1.0
 40
2.0
 40
2.0
 40
2.0
 40
3.0
 40
3.0
 40
3.0
 40
4.0
 40
4.0
 40
4.0
 40
5.0
 40
5.0
 40
5.0
 40
6.0
 40
6.0
 40
6.0
 40
7.0
 40
7.0
 40
7.0
 40
8.0
 40
8.0
 40
8.0
 40
9.0
 40
9.0
 40
9.0
 40
10.0
 40
10.0
 40
10.0
 40
11.0
 40
11.0
 40
11.0
 40
12.0
 40
12.0
 40
12.0
 40
13.0
 40
13.0
 40
13.0
 40
14.0
 40
14.0
 40
14.0
 40
15.0
 40
15.0
 40
15.0
 40
16.0
 40
16.0
 40
16.0
 40
17.0
 40
17.0
 40
17.0
 40
18.0
 40
18.0
 40
18.0
 40
18.0
 10
49.39440104166666
 20
189.0932159288193
 10
49.39440104166666
 20
189.0932159288193
 10
51.24786241319444
 20
189.0932159288193
 10
51.24786241319444
 20
189.0932159288193
 10
51.24786241319444
 20
189.0932159288193
 10
54.04665798611111
 20
172.3887471788193
 10
54.04665798611111
 20
172.3887471788193
 10
54.04665798611111
 20
172.3887471788193
 10
56.83994140624999
 20
189.0932159288193
 10
56.83994140624999
 20
189.0932159288193
 10
56.83994140624999
 20
189.0932159288193
 10
58.69891493055553
 20
189.0932159288193
 10
58.69891493055553
 20
189.0932159288193
 10
58.69891493055553
 20
189.0932159288193
 10
58.69891493055553
 20
169.3358964843748
 10
58.69891493055553
 20
169.3358964843748
 10
58.69891493055553
 20
169.3358964843748
 10
57.46419270833333
 20
169.3358964843748
 10
57.46419270833333
 20
169.3358964843748
 10
57.46419270833333
 20
169.3358964843748
 10
57.46419270833333
 20
180.9964422743054
 10
57.46419270833333
 20
180.9964422743054
 10
57.46419270833333
 20
181.3996011284721
 10
57.47108289930555
 20
182.0677291666664
 10
57.48624131944444
 20
183.0001924913193
 10
57.50071072048609
 20
183.9326558159721
 10
57.50828993055553
 20
184.932312282986
 10
57.50828993055553
 20
185.9997957899304
 10
57.50828993055553
 20
185.9997957899304
 10
54.700537109375
 20
169.3358964843748
 10
54.700537109375
 20
169.3358964843748
 10
54.700537109375
 20
169.3358964843748
 10
53.38382161458333
 20
169.3358964843748
 10
53.38382161458333
 20
169.3358964843748
 10
53.38382161458333
 20
169.3358964843748
 10
50.58502604166665
 20
185.9997957899304
 10
50.58502604166665
 20
185.9997957899304
 10
50.58502604166665
 20
185.9997957899304
 10
50.58502604166665
 20
185.3944236111109
 10
50.58502604166665
 20
185.3944236111109
 10
50.58502604166665
 20
184.9101258680554
 10
50.59191623263888
 20
184.1729029947915
 10
50.60707465277777
 20
183.1821210937498
 10
50.62154405381942
 20
182.1913391927082
 10
50.62912326388889
 20
181.4629908854165
 10
50.62912326388889
 20
180.9964422743054
 10
50.62912326388889
 20
180.9964422743054
 10
50.62912326388889
 20
169.3358964843748
 10
50.62912326388889
 20
169.3358964843748
 10
50.62912326388889
 20
169.3358964843748
 10
49.39440104166666
 20
169.3358964843748
 10
49.39440104166666
 20
169.3358964843748
 10
49.39440104166666
 20
169.3358964843748
 10
49.39440104166666
 20
189.0932159288193
 10
49.39440104166666
 20
189.0932159288193
 97
        1
330
595
 75
     0
 76
     1
 98
        1
 10
0.0
 20
0.0
  0
HATCH
  5
5AE
330
590
100
AcDbEntity
  8
0
  6
Continuous
100
AcDbHatch
 10
0.0
 20
0.0
 30
0.0
210
0.0
220
0.0
230
1.0
  2
SOLID
 70
     1
 71
     1
 91
        2
 92
       16
 93
        1
 72
     4
 94
        3
 73
     0
 74
     0
 95
       32
 96
       28
 40
0.0
 40
0.0
 40
0.0
 40
0.0
 40
1.0
 40
1.0
 40
1.0
 40
2.0
 40
2.0
 40
2.0
 40
3.0
 40
3.0
 40
3.0
 40
4.0
 40
4.0
 40
4.0
 40
5.0
 40
5.0
 40
5.0
 40
6.0
 40
6.0
 40
6.0
 40
7.0
 40
7.0
 40
7.0
 40
8.0
 40
8.0
 40
8.0
 40
9.0
 40
9.0
 40
9.0
 40
9.0
 10
91.70051812065969
 20
171.6077853732634
 10
91.70051812065969
 20
171.6077853732634
 10
91.70051812065969
 20
186.7401881510414
 10
91.70051812065969
 20
186.7401881510414
 10
91.70051812065969
 20
186.7401881510414
 10
93.98668348524305
 20
186.7401881510414
 10
93.98668348524305
 20
186.7401881510414
 10
95.02159016927082
 20
186.7401881510414
 10
95.77331000434028
 20
186.0644533420137
 10
96.24322102864582
 20
184.7142515190969
 10
96.71313205295138
 20
183.3640496961804
 10
96.94808756510417
 20
181.4680620659721
 10
96.94808756510417
 20
179.0262886284719
 10
96.94808756510417
 20
178.3911232638887
 10
96.91432562934028
 20
177.7027105034721
 10
96.84749077690971
 20
176.9604164496524
 10
96.7324245876736
 20
175.7167094184024
 10
96.55052354600693
 20
174.6974021267359
 10
96.30109863281248
 20
173.901860677083
 10
95.98414984809028
 20
172.9091770833332
 10
95.57693956163193
 20
172.2378795572914
 10
95.07877875434026
 20
171.8892358940971
 10
94.79076877170138
 20
171.7016022135415
 10
94.43178982204859
 20
171.6077853732634
 10
94.00115288628471
 20
171.6077853732634
 10
94.00115288628471
 20
171.6077853732634
 10
91.70051812065969
 20
171.6077853732634
 10
91.70051812065969
 20
171.6077853732634
 97
        1
330
59A
 92
        1
 93
        1
 72
     4
 94
        3
 73
     0
 74
     0
 95
       26
 96
       22
 40
0.0
 40
0.0
 40
0.0
 40
0.0
 40
1.0
 40
1.0
 40
1.0
 40
2.0
 40
2.0
 40
2.0
 40
3.0
 40
3.0
 40
3.0
 40
4.0
 40
4.0
 40
4.0
 40
5.0
 40
5.0
 40
5.0
 40
6.0
 40
6.0
 40
6.0
 40
7.0
 40
7.0
 40
7.0
 40
7.0
 10
90.37760145399305
 20
169.3358964843748
 10
90.37760145399305
 20
169.3358964843748
 10
94.22990722656248
 20
169.3358964843748
 10
94.22990722656248
 20
169.3358964843748
 10
95.87115071614581
 20
169.3358964843748
 10
97.03008083767359
 20
170.8331625434026
 10
97.70600857204859
 20
173.8283285590274
 10
98.08221299913194
 20
175.5227367621523
 10
98.27100423177082
 20
177.4187243923609
 10
98.27100423177082
 20
179.5169253472221
 10
98.27100423177082
 20
182.233810329861
 10
97.94716525607638
 20
184.4619602864582
 10
97.30086534288195
 20
186.2013752170135
 10
96.57601725260416
 20
188.1290577256938
 10
95.5576470269097
 20
189.0932159288193
 10
94.24437662760416
 20
189.0932159288193
 10
94.24437662760416
 20
189.0932159288193
 10
90.37760145399305
 20
189.0932159288193
 10
90.37760145399305
 20
189.0932159288193
 10
90.37760145399305
 20
189.0932159288193
 10
90.37760145399305
 20
169.3358964843748
 10
90.37760145399305
 20
169.3358964843748
 97
        0
 75
     0
 76
     1
 98
        0
  0
HATCH
  5
5AF
330
590
100
AcDbEntity
  8
0
  6
Continuous
100
AcDbHatch
 10
0.0
 20
0.0
 30
0.0
210
0.0
220
0.0
230
1.0
  2
SOLID
 70
     1
 71
     1
 91
        2
 92
       16
 93
        1
 72
     4
 94
        3
 73
     0
 74
     0
 95
       26
 96
       22
 40
0.0
 40
0.0
 40
0.0
 40
0.0
 40
1.0
 40
1.0
 40
1.0
 40
2.0
 40
2.0
 40
2.0
 40
3.0
 40
3.0
 40
3.0
 40
4.0
 40
4.0
 40
4.0
 40
5.0
 40
5.0
 40
5.0
 40
6.0
 40
6.0
 40
6.0
 40
7.0
 40
7.0
 40
7.0
 40
7.0
 10
100.5623372395832
 20
180.046229817708
 10
100.5623372395832
 20
180.046229817708
 10
100.5623372395832
 20
186.7401881510414
 10
100.5623372395832
 20
186.7401881510414
 10
100.5623372395832
 20
186.7401881510414
 10
103.6732584635416
 20
186.7401881510414
 10
103.6732584635416
 20
186.7401881510414
 10
104.1107855902777
 20
186.7401881510414
 10
104.4580512152777
 20
186.6064357638887
 10
104.7150553385415
 20
186.3401987847214
 10
105.2097710503471
 20
185.8330807291664
 10
105.4571289062495
 20
184.8822343749995
 10
105.4571289062495
 20
183.4863919270832
 10
105.4571289062495
 20
182.188169704861
 10
105.280740017361
 20
181.2905707465276
 10
104.9286512586804
 20
180.7929611545137
 10
104.5765624999999
 20
180.2947176649304
 10
104.1011393229166
 20
180.046229817708
 10
103.5023817274304
 20
180.046229817708
 10
103.5023817274304
 20
180.046229817708
 10
100.5623372395832
 20
180.046229817708
 10
100.5623372395832
 20
180.046229817708
 97
        1
330
59B
 92
        1
 93
        1
 72
     4
 94
        3
 73
     0
 74
     0
 95
       68
 96
       64
 40
0.0
 40
0.0
 40
0.0
 40
0.0
 40
1.0
 40
1.0
 40
1.0
 40
2.0
 40
2.0
 40
2.0
 40
3.0
 40
3.0
 40
3.0
 40
4.0
 40
4.0
 40
4.0
 40
5.0
 40
5.0
 40
5.0
 40
6.0
 40
6.0
 40
6.0
 40
7.0
 40
7.0
 40
7.0
 40
8.0
 40
8.0
 40
8.0
 40
9.0
 40
9.0
 40
9.0
 40
10.0
 40
10.0
 40
10.0
 40
11.0
 40
11.0
 40
11.0
 40
12.0
 40
12.0
 40
12.0
 40
13.0
 40
13.0
 40
13.0
 40
14.0
 40
14.0
 40
14.0
 40
15.0
 40
15.0
 40
15.0
 40
16.0
 40
16.0
 40
16.0
 40
17.0
 40
17.0
 40
17.0
 40
18.0
 40
18.0
 40
18.0
 40
19.0
 40
19.0
 40
19.0
 40
20.0
 40
20.0
 40
20.0
 40
21.0
 40
21.0
 40
21.0
 40
21.0
 10
99.23942057291661
 20
169.3358964843748
 10
99.23942057291661
 20
169.3358964843748
 10
100.5623372395832
 20
169.3358964843748
 10
100.5623372395832
 20
169.3358964843748
 10
100.5623372395832
 20
169.3358964843748
 10
100.5623372395832
 20
177.8149103732637
 10
100.5623372395832
 20
177.8149103732637
 10
100.5623372395832
 20
177.8149103732637
 10
103.4472601996527
 20
177.8149103732637
 10
103.4472601996527
 20
177.8149103732637
 10
103.9681586371527
 20
177.8149103732637
 10
104.3519422743053
 20
177.6938359374998
 10
104.5986111111109
 20
177.4516870659716
 10
105.0244249131943
 20
177.0117621527776
 10
105.2518012152777
 20
176.1458580729164
 10
105.280740017361
 20
174.8539748263887
 10
105.280740017361
 20
174.8539748263887
 10
105.3689344618053
 20
171.5564396701385
 10
105.3689344618053
 20
171.5564396701385
 10
105.3882269965277
 20
170.7843524305554
 10
105.4109646267359
 20
170.2639225260415
 10
105.4357693142359
 20
169.9951499565971
 10
105.4605740017358
 20
169.725743489583
 10
105.4970920138888
 20
169.5057810329859
 10
105.5467013888887
 20
169.3358964843748
 10
105.5467013888887
 20
169.3358964843748
 10
107.1769205729166
 20
169.3358964843748
 10
107.1769205729166
 20
169.3358964843748
 10
107.1769205729166
 20
169.3358964843748
 10
107.1769205729166
 20
169.7821603732633
 10
107.1769205729166
 20
169.7821603732633
 10
106.9750379774303
 20
169.9609194878471
 10
106.8337890624996
 20
170.3628105468748
 10
106.7538628472221
 20
170.9878335503471
 10
106.7028754340274
 20
171.3542263454858
 10
106.6677354600692
 20
171.9120562065971
 10
106.6477539062496
 20
172.6625909288193
 10
106.6477539062496
 20
172.6625909288193
 10
106.6036566840277
 20
175.3205234374999
 10
106.6036566840277
 20
175.3205234374999
 10
106.5836751302082
 20
176.4716814236109
 10
106.4768771701387
 20
177.3033550347219
 10
106.2839518229166
 20
177.814276475694
 10
106.0903374565971
 20
178.3251979166665
 10
105.8002604166666
 20
178.7372313368054
 10
105.4130316840276
 20
179.0516445312498
 10
105.8443576388885
 20
179.5086846788193
 10
106.179909939236
 20
180.1134229600693
 10
106.4196885850692
 20
180.866493272569
 10
106.6594672309027
 20
181.6189296874999
 10
106.7800455729166
 20
182.5868912760411
 10
106.7800455729166
 20
183.7697441406248
 10
106.7800455729166
 20
186.0371957465273
 10
106.3328721788193
 20
187.5921464843749
 10
105.4392144097221
 20
188.4345963541665
 10
104.9679253472221
 20
188.8732534722221
 10
104.3719238281249
 20
189.0932159288193
 10
103.6512098524303
 20
189.0932159288193
 10
103.6512098524303
 20
189.0932159288193
 10
99.23942057291661
 20
189.0932159288193
 10
99.23942057291661
 20
189.0932159288193
 10
99.23942057291661
 20
189.0932159288193
 10
99.23942057291661
 20
169.3358964843748
 10
99.23942057291661
 20
169.3358964843748
 97
        0
 75
     0
 76
     1
 98
        0
  0
HATCH
  5
5B0
330
590
100
AcDbEntity
  8
0
  6
Continuous
100
AcDbHatch
 10
0.0
 20
0.0
 30
0.0
210
0.0
220
0.0
230
1.0
  2
SOLID
 70
     1
 71
     1
 91
        2
 92
        1
 93
        8
 72
     1
 10
35.47828233506943
 20
189.0932159288193
 11
31.83957248263888
 21
169.3358964843748
 72
     1
 10
31.83957248263888
 20
169.3358964843748
 11
33.22450086805555
 21
169.3358964843748
 72
     1
 10
33.22450086805555
 20
169.3358964843748
 11
34.27043185763887
 21
175.2590353732638
 72
     1
 10
34.27043185763887
 20
175.2590353732638
 11
38.04694552951389
 21
175.2590353732638
 72
     1
 10
38.04694552951389
 20
175.2590353732638
 11
39.05015733506942
 21
169.3358964843748
 72
     1
 10
39.05015733506942
 20
169.3358964843748
 11
40.43508572048611
 21
169.3358964843748
 72
     1
 10
40.43508572048611
 20
169.3358964843748
 11
36.952783203125
 21
189.0932159288193
 72
     1
 10
36.952783203125
 20
189.0932159288193
 11
35.47828233506943
 21
189.0932159288193
 97
        8
330
5AB
330
5A4
330
5A5
330
5A6
330
5A7
330
5A8
330
5A9
330
5AA
 92
       16
 93
        3
 72
     1
 10
37.67556423611111
 20
177.4497853732638
 11
34.65766059027778
 21
177.4497853732638
 72
     1
 10
34.65766059027778
 20
177.4497853732638
 11
36.19830729166666
 21
186.1658769531249
 72
     1
 10
36.19830729166666
 20
186.1658769531249
 11
37.67556423611111
 21
177.4497853732638
 97
        3
330
5A3
330
5A1
330
5A2
 75
     0
 76
     1
 98
        1
 10
0.0
 20
0.0
  0
HATCH
  5
5B1
330
590
100
AcDbEntity
  8
0
  6
Continuous
100
AcDbHatch
 10
0.0
 20
0.0
 30
0.0
210
0.0
220
0.0
230
1.0
  2
SOLID
 70
     1
 71
     1
 91
        1
 92
        1
 93
        1
 72
     4
 94
        3
 73
     0
 74
     0
 95
      113
 96
      109
 40
0.0
 40
0.0
 40
0.0
 40
0.0
 40
1.0
 40
1.0
 40
1.0
 40
2.0
 40
2.0
 40
2.0
 40
3.0
 40
3.0
 40
3.0
 40
4.0
 40
4.0
 40
4.0
 40
5.0
 40
5.0
 40
5.0
 40
6.0
 40
6.0
 40
6.0
 40
7.0
 40
7.0
 40
7.0
 40
8.0
 40
8.0
 40
8.0
 40
9.0
 40
9.0
 40
9.0
 40
10.0
 40
10.0
 40
10.0
 40
11.0
 40
11.0
 40
11.0
 40
12.0
 40
12.0
 40
12.0
 40
13.0
 40
13.0
 40
13.0
 40
14.0
 40
14.0
 40
14.0
 40
15.0
 40
15.0
 40
15.0
 40
16.0
 40
16.0
 40
16.0
 40
17.0
 40
17.0
 40
17.0
 40
18.0
 40
18.0
 40
18.0
 40
19.0
 40
19.0
 40
19.0
 40
20.0
 40
20.0
 40
20.0
 40
21.0
 40
21.0
 40
21.0
 40
22.0
 40
22.0
 40
22.0
 40
23.0
 40
23.0
 40
23.0
 40
24.0
 40
24.0
 40
24.0
 40
25.0
 40
25.0
 40
25.0
 40
26.0
 40
26.0
 40
26.0
 40
27.0
 40
27.0
 40
27.0
 40
28.0
 40
28.0
 40
28.0
 40
29.0
 40
29.0
 40
29.0
 40
30.0
 40
30.0
 40
30.0
 40
31.0
 40
31.0
 40
31.0
 40
32.0
 40
32.0
 40
32.0
 40
33.0
 40
33.0
 40
33.0
 40
34.0
 40
34.0
 40
34.0
 40
35.0
 40
35.0
 40
35.0
 40
36.0
 40
36.0
 40
36.0
 40
36.0
 10
193.3039632161458
 20
186.1548733181423
 10
193.3039632161458
 20
186.1860514322916
 10
193.3039632161458
 20
219.6932223849826
 10
193.3039632161458
 20
219.6932223849826
 10
193.3039632161458
 20
219.6932223849826
 10
193.2974175347219
 20
219.7488606770833
 10
193.2974175347219
 20
219.7488606770833
 10
191.5293945312499
 20
235.455740017361
 10
175.1458984374999
 20
235.2467949761284
 10
174.9808783637151
 20
235.2428331163193
 10
174.9808783637151
 20
235.2428331163193
 10
125.8827555338541
 20
235.2430053710937
 10
125.8827555338541
 20
235.2430053710937
 10
125.8827555338541
 20
235.2430053710937
 10
125.8827555338541
 20
255.5278998480901
 10
125.8827555338541
 20
255.5278998480901
 10
125.8827555338541
 20
255.5278998480901
 10
84.5626247829861
 20
255.5278998480901
 10
84.5626247829861
 20
255.5278998480901
 10
84.5626247829861
 20
255.5278998480901
 10
84.55711263020829
 20
233.7919311523436
 10
84.55711263020829
 20
233.7919311523436
 10
84.55711263020829
 20
233.7919311523436
 10
64.42052951388888
 20
233.7919311523436
 10
64.42052951388888
 20
233.7919311523436
 10
64.42052951388888
 20
233.7919311523436
 10
64.41501736111111
 20
255.5278998480901
 10
64.41501736111111
 20
255.5278998480901
 10
64.41501736111111
 20
255.5278998480901
 10
23.91757541232637
 20
255.5278998480901
 10
23.91757541232637
 20
255.5278998480901
 10
23.91757541232637
 20
255.5278998480901
 10
23.91757541232637
 20
233.2393378363715
 10
23.91757541232637
 20
233.2393378363715
 10
23.91757541232637
 20
233.2393378363715
 10
43.65624999999999
 20
233.2393378363715
 10
43.65624999999999
 20
233.2393378363715
 10
43.65624999999999
 20
233.2393378363715
 10
43.65624999999999
 20
211.5188720703125
 10
43.65624999999999
 20
211.5188720703125
 10
43.65624999999999
 20
211.5188720703125
 10
23.91757541232637
 20
211.5188720703125
 10
23.91757541232637
 20
211.5188720703125
 10
23.91757541232637
 20
211.5188720703125
 10
23.91757541232637
 20
189.2303100585936
 10
23.91757541232637
 20
189.2303100585936
 10
23.91757541232637
 20
189.2303100585936
 10
64.41501736111111
 20
189.2303100585936
 10
64.41501736111111
 20
189.2303100585936
 10
64.41501736111111
 20
189.2303100585936
 10
64.42052951388888
 20
211.069976128472
 10
64.42052951388888
 20
211.069976128472
 10
64.42052951388888
 20
211.069976128472
 10
84.55711263020829
 20
211.069976128472
 10
84.55711263020829
 20
211.069976128472
 10
84.55711263020829
 20
211.069976128472
 10
84.5626247829861
 20
189.2303100585936
 10
84.5626247829861
 20
189.2303100585936
 10
84.5626247829861
 20
189.2303100585936
 10
125.8827555338541
 20
189.2303100585936
 10
125.8827555338541
 20
189.2303100585936
 10
125.8827555338541
 20
189.2303100585936
 10
125.8827555338541
 20
211.5188720703125
 10
125.8827555338541
 20
211.5188720703125
 10
125.8827555338541
 20
211.5188720703125
 10
105.3213921440971
 20
211.5188720703125
 10
105.3213921440971
 20
211.5188720703125
 10
105.3213921440971
 20
211.5188720703125
 10
105.3213921440971
 20
233.2393378363715
 10
105.3213921440971
 20
233.2393378363715
 10
105.3213921440971
 20
233.2393378363715
 10
175.0046495225693
 20
233.243127441406
 10
175.0046495225693
 20
233.243127441406
 10
175.6268337673611
 20
233.2560465494791
 10
189.7165852864583
 20
233.3962619357638
 10
191.3037407769094
 20
219.5690266927083
 10
191.3037407769094
 20
219.4332899305555
 10
191.3037407769094
 20
186.1142211914062
 10
191.3037407769094
 20
186.1142211914062
 10
191.3037407769094
 20
186.1142211914062
 10
191.3051188151039
 20
186.0880384657115
 10
191.3051188151039
 20
186.0880384657115
 10
191.3054633246526
 20
186.0787367078991
 10
191.3109754774304
 20
185.9566080729166
 10
191.3109754774304
 20
185.7399115668401
 10
191.3109754774304
 20
184.2090833875865
 10
191.0488037109374
 20
177.9643310546874
 10
186.9866916232638
 20
173.5652886284722
 10
184.2540418836804
 20
170.6064683702255
 10
180.3224989149304
 20
169.0308539496526
 10
175.300927734375
 20
168.8825425889756
 10
175.300927734375
 20
168.8825425889756
 10
107.0094889322916
 20
168.8828870985243
 10
107.0094889322916
 20
168.8828870985243
 10
107.0094889322916
 20
168.8828870985243
 10
107.0094889322916
 20
166.8830091688368
 10
107.0094889322916
 20
166.8830091688368
 10
107.0094889322916
 20
166.8830091688368
 10
175.3305555555555
 20
166.8830091688368
 10
175.3305555555555
 20
166.8830091688368
 10
180.9467502170138
 20
167.0485460069444
 10
185.3571614583333
 20
168.8448187934026
 10
188.4687717013888
 20
172.2223904079861
 10
192.9649658203124
 20
177.1034016927083
 10
193.3136094835069
 20
183.7202243381076
 10
193.3136094835069
 20
185.6520616319443
 10
193.3136094835069
 20
185.9247409396701
 10
193.3070638020833
 20
186.0868326822916
 10
193.3039632161458
 20
186.1548733181423
 97
        1
330
591
 75
     0
 76
     1
 98
        1
 10
0.0
 20
0.0
  0
HATCH
  5
5B2
330
590
100
AcDbEntity
  8
0
  6
Continuous
100
AcDbHatch
 10
0.0
 20
0.0
 30
0.0
210
0.0
220
0.0
230
1.0
  2
SOLID
 70
     1
 71
     1
 91
        2
 92
        1
 93
        1
 72
     4
 94
        3
 73
     0
 74
     0
 95
       23
 96
       19
 40
0.0
 40
0.0
 40
0.0
 40
0.0
 40
1.0
 40
1.0
 40
1.0
 40
2.0
 40
2.0
 40
2.0
 40
3.0
 40
3.0
 40
3.0
 40
4.0
 40
4.0
 40
4.0
 40
5.0
 40
5.0
 40
5.0
 40
6.0
 40
6.0
 40
6.0
 40
6.0
 10
148.6593153211804
 20
211.3929538302948
 10
148.6593153211804
 20
211.3929538302948
 10
148.6593153211804
 20
189.6308024088539
 10
148.6593153211804
 20
189.6308024088539
 10
148.6593153211804
 20
189.6308024088539
 10
161.3152180989583
 20
189.6308024088539
 10
161.3152180989583
 20
189.6308024088539
 10
162.8431179470483
 20
189.6308024088539
 10
170.4657362196178
 20
190.1880466037321
 10
170.4657362196178
 20
201.1911648220483
 10
170.4657362196178
 20
211.1288872612844
 10
162.3356553819444
 20
211.3914035373261
 10
162.2536621093749
 20
211.3927815755205
 10
162.2536621093749
 20
211.3927815755205
 10
149.6594265407986
 20
211.3929538302948
 10
149.6594265407986
 20
211.3929538302948
 10
149.6594265407986
 20
211.3929538302948
 10
148.6593153211804
 20
211.3929538302948
 10
148.6593153211804
 20
211.3929538302948
 97
        1
330
592
 92
       16
 93
        1
 72
     4
 94
        3
 73
     0
 74
     0
 95
       20
 96
       16
 40
0.0
 40
0.0
 40
0.0
 40
0.0
 40
1.0
 40
1.0
 40
1.0
 40
2.0
 40
2.0
 40
2.0
 40
3.0
 40
3.0
 40
3.0
 40
4.0
 40
4.0
 40
4.0
 40
5.0
 40
5.0
 40
5.0
 40
5.0
 10
162.2354031032983
 20
209.3930759006072
 10
162.467947048611
 20
209.3861857096351
 10
168.4655137803819
 20
209.1283203124997
 10
168.4655137803819
 20
201.1911648220483
 10
168.4655137803819
 20
192.3202162000865
 10
162.9926350911458
 20
191.6306803385413
 10
161.3152180989583
 20
191.6306803385413
 10
161.3152180989583
 20
191.6306803385413
 10
152.3310980902776
 20
191.6306803385413
 10
150.6595377604166
 20
191.6306803385413
 10
150.6595377604166
 20
193.3373806423608
 10
150.6595377604166
 20
207.6863755967879
 10
150.6595377604166
 20
209.3930759006072
 10
152.3538357204859
 20
209.3930759006072
 10
162.2354031032983
 20
209.3930759006072
 10
162.2354031032983
 20
209.3930759006072
 97
        0
 75
     0
 76
     1
 98
        0
  0
ENDBLK
  5
5B4
330
590
100
AcDbEntity
  8
0
100
AcDbBlockEnd
  0
BLOCK
  5
5B7
330
5B5
100
AcDbEntity
  8
0
100
AcDbBlockBegin
  2
HD logo-new
 70
     0
 10
0.0
 20
0.0
 30
0.0
  3
HD logo-new
  1

  0
INSERT
  5
5B6
330
5B5
100
AcDbEntity
  8
0
 62
     3
100
AcDbBlockReference
  2
HD_LLC_logo_OT5
 10
-27.1607188578505
 20
-68.37367811463031
 30
0.0
 41
0.2999999999999971
 42
0.3000000000000007
 43
0.3
  0
ENDBLK
  5
5B8
330
5B5
100
AcDbEntity
  8
0
100
AcDbBlockEnd
  0
BLOCK
  5
5C3
330
5C1
100
AcDbEntity
  8
0
100
AcDbBlockBegin
  2
HD LLC
 70
     0
 10
0.0
 20
0.0
 30
0.0
  3
HD LLC
  1

  0
MTEXT
  5
5C2
330
5C1
100
AcDbEntity
  8
0
100
AcDbMText
 10
-2.314970886968865
 20
1.247205085865914
 30
0.0
 40
5.675387507387601
 41
236.1828726592229
 71
     5
 72
     5
  1
Harmonic Drive LLC\P800-921-3332\Pwww.harmonicdrive.net
 73
     1
 44
1.0
  0
ENDBLK
  5
5C4
330
5C1
100
AcDbEntity
  8
0
100
AcDbBlockEnd
  0
ENDSEC
  0
SECTION
  2
ENTITIES
  0
LINE
  5
2C5
330
1F
100
AcDbEntity
  8
LINE_CENTER
100
AcDbLine
 10
9.85125830381342
 20
9.972359747277067
 30
0.0
 11
8.518308303813425
 21
9.972359747277067
 31
0.0
  0
ARC
  5
2C6
330
1F
100
AcDbEntity
  8
SEPARATOR_BEARING
 48
0.5
100
AcDbCircle
 10
9.563227016159952
 20
10.71968741332795
 30
0.0
 40
0.1045000033439984
100
AcDbArc
 50
179.8700804271466
 51
246.3224017926173
  0
ARC
  5
2C7
330
1F
100
AcDbEntity
  8
SEPARATOR_BEARING
 48
0.5
100
AcDbCircle
 10
9.94125830381342
 20
9.972359747277067
 30
0.0
 40
0.8975000287199867
100
AcDbArc
 50
123.1103456008694
 51
126.2064245854642
  0
ARC
  5
2C8
330
1F
100
AcDbEntity
  8
SEPARATOR_BEARING
 48
0.5
100
AcDbCircle
 10
9.375618850476698
 20
10.5899828554255
 30
0.0
 40
0.1045000033439984
100
AcDbArc
 50
2.994368393716685
 51
69.44668975918927
  0
ARC
  5
2C9
330
1F
100
AcDbEntity
  8
BEARING_WAVE_GEN
 48
0.5
100
AcDbCircle
 10
9.564806848406874
 20
10.71656425293251
 30
0.0
 40
0.0937500029999986
100
AcDbArc
 50
144.5909563678628
 51
270.6615958677121
  0
ARC
  5
2CA
330
1F
100
AcDbEntity
  8
BEARING_WAVE_GEN
 48
0.5
100
AcDbCircle
 10
9.362173401466467
 20
10.57254032042933
 30
0.0
 40
0.0937500029999986
100
AcDbArc
 50
340.1458575484368
 51
106.2164970482827
  0
CIRCLE
  5
2CB
330
1F
100
AcDbEntity
  8
WAVE_GENERATOR
100
AcDbCircle
 10
9.410258303813428
 20
9.972359747277067
 30
0.0
 40
0.06425
  0
ARC
  5
2CC
330
1F
100
AcDbEntity
  8
BEARING_WAVE_GEN
 48
0.5
100
AcDbCircle
 10
9.484984024008259
 20
9.274240970775634
 30
0.0
 40
0.0937500029999986
100
AcDbArc
 50
83.00300040558029
 51
209.073639905426
  0
CIRCLE
  5
2CD
330
1F
100
AcDbEntity
  8
LINE_CENTER
100
AcDbCircle
 10
9.94125830381342
 20
9.972359747277067
 30
0.0
 40
0.5315
  0
CIRCLE
  5
2CE
330
1F
100
AcDbEntity
  8
BEARING_WAVE_GEN
 48
0.5
100
AcDbCircle
 10
9.94125830381342
 20
9.972359747277067
 30
0.0
 40
0.7000000223999896
  0
CIRCLE
  5
2CF
330
1F
100
AcDbEntity
  8
BEARING_WAVE_GEN
 48
0.5
100
AcDbCircle
 10
9.94125830381342
 20
9.972359747277067
 30
0.0
 40
0.7510000240319874
  0
CIRCLE
  5
2D0
330
1F
100
AcDbEntity
  8
BEARING_WAVE_GEN
 48
0.5
100
AcDbCircle
 10
9.94125830381342
 20
9.972359747277067
 30
0.0
 40
0.918000029375986
  0
CIRCLE
  5
2D1
330
1F
100
AcDbEntity
  8
SPLINE_STATIC
100
AcDbCircle
 10
9.94125830381342
 20
9.972359747277067
 30
0.0
 40
1.37795
  0
CIRCLE
  5
2D2
330
1F
100
AcDbEntity
  8
LINE_CENTER
100
AcDbCircle
 10
9.94125830381342
 20
9.972359747277067
 30
0.0
 40
1.181
  0
CIRCLE
  5
2D3
330
1F
100
AcDbEntity
  8
WEAR_WASHER
100
AcDbCircle
 10
9.94125830381342
 20
9.972359747277067
 30
0.0
 40
1.0625
  0
CIRCLE
  5
2D4
330
1F
100
AcDbEntity
  8
WEAR_WASHER
100
AcDbCircle
 10
9.94125830381342
 20
9.972359747277067
 30
0.0
 40
0.925
  0
LINE
  5
2D5
330
1F
100
AcDbEntity
  8
LINE_CENTER
100
AcDbLine
 10
4.667791627564254
 20
9.972359747277067
 30
0.0
 11
6.000741627564254
 21
9.972359747277067
 31
0.0
  0
ARC
  5
2D6
330
1F
100
AcDbEntity
  8
SEPARATOR_BEARING
 48
0.5
100
AcDbCircle
 10
4.955822915217733
 20
10.71968741332794
 30
0.0
 40
0.1045000033439996
100
AcDbArc
 50
293.6775982073818
 51
0.1299195728533022
  0
ARC
  5
2D7
330
1F
100
AcDbEntity
  8
BEARING_WAVE_GEN
 48
0.5
100
AcDbCircle
 10
4.954243082970808
 20
10.7165642529325
 30
0.0
 40
0.0937500029999997
100
AcDbArc
 50
269.3384041322878
 51
35.40904363213559
  0
ARC
  5
2D8
330
1F
100
AcDbEntity
  8
SEPARATOR_BEARING
 48
0.5
100
AcDbCircle
 10
4.577791627564254
 20
9.972359747277067
 30
0.0
 40
0.7675000245599973
100
AcDbArc
 50
53.79576640347814
 51
56.88746341018493
  0
ARC
  5
2D9
330
1F
100
AcDbEntity
  8
BEARING_WAVE_GEN
 48
0.5
100
AcDbCircle
 10
5.034065907369426
 20
9.274240970775641
 30
0.0
 40
0.0937500029999997
100
AcDbArc
 50
149.3384041322888
 51
275.4090436321352
  0
CIRCLE
  5
2DA
330
1F
100
AcDbEntity
  8
BEARING_WAVE_GEN
 48
0.5
100
AcDbCircle
 10
4.577791627564254
 20
9.972359747277067
 30
0.0
 40
0.7000000223999975
  0
CIRCLE
  5
2DB
330
1F
100
AcDbEntity
  8
BEARING_WAVE_GEN
 48
0.5
100
AcDbCircle
 10
4.577791627564254
 20
9.972359747277067
 30
0.0
 40
0.751000024031996
  0
CIRCLE
  5
2DC
330
1F
100
AcDbEntity
  8
BEARING_WAVE_GEN
 48
0.5
100
AcDbCircle
 10
4.577791627564254
 20
9.972359747277067
 30
0.0
 40
0.9180000293759963
  0
CIRCLE
  5
2DD
330
1F
100
AcDbEntity
  8
WEAR_WASHER
100
AcDbCircle
 10
4.577791627564254
 20
9.972359747277067
 30
0.0
 40
0.925
  0
CIRCLE
  5
2DE
330
1F
100
AcDbEntity
  8
WEAR_WASHER
100
AcDbCircle
 10
4.577791627564254
 20
9.972359747277067
 30
0.0
 40
1.0625
  0
CIRCLE
  5
2DF
330
1F
100
AcDbEntity
  8
LINE_CENTER
100
AcDbCircle
 10
4.577791627564254
 20
9.972359747277067
 30
0.0
 40
1.181
  0
CIRCLE
  5
2E0
330
1F
100
AcDbEntity
  8
SPLINE_STATIC
100
AcDbCircle
 10
4.577791627564254
 20
9.972359747277067
 30
0.0
 40
1.37795
  0
LINE
  5
2E1
330
1F
100
AcDbEntity
  8
LINE_CENTER
100
AcDbLine
 10
4.577791627564254
 20
10.06235974727706
 30
0.0
 11
4.577791627564254
 21
11.39530974727706
 31
0.0
  0
ARC
  5
2E2
330
1F
100
AcDbEntity
  8
SEPARATOR_BEARING
 48
0.5
100
AcDbCircle
 10
4.936253700090073
 20
10.72926874937077
 30
0.0
 40
0.1045000033439996
100
AcDbArc
 50
127.696167383668
 51
194.1484887491395
  0
ARC
  5
2E3
330
1F
100
AcDbEntity
  8
SEPARATOR_BEARING
 48
0.5
100
AcDbCircle
 10
4.718749349233311
 20
10.79791242009199
 30
0.0
 40
0.1045000033439996
100
AcDbArc
 50
310.8204553502389
 51
17.27277671570974
  0
ARC
  5
2E4
330
1F
100
AcDbEntity
  8
BEARING_WAVE_GEN
 48
0.5
100
AcDbCircle
 10
4.954243082970808
 20
10.7165642529325
 30
0.0
 40
0.0937500029999997
100
AcDbArc
 50
90.92636009457669
 51
216.996999594418
  0
ARC
  5
2E5
330
1F
100
AcDbEntity
  8
SEPARATOR_BEARING
 48
0.5
100
AcDbCircle
 10
4.697225391050352
 20
10.80129995683958
 30
0.0
 40
0.1045000033439996
100
AcDbArc
 50
144.8390245265253
 51
211.291345891998
  0
ARC
  5
2E6
330
1F
100
AcDbEntity
  8
BEARING_WAVE_GEN
 48
0.5
100
AcDbCircle
 10
4.718160272187519
 20
10.79446234922052
 30
0.0
 40
0.0937500029999997
100
AcDbArc
 50
108.0692172374312
 51
234.1398567372734
  0
ARC
  5
2E7
330
1F
100
AcDbEntity
  8
BEARING_WAVE_GEN
 48
0.5
100
AcDbCircle
 10
4.469605091331805
 20
10.79931302158801
 30
0.0
 40
0.0937500029999997
100
AcDbArc
 50
125.2120743802879
 51
251.2827138801357
  0
ARC
  5
2E8
330
1F
100
AcDbEntity
  8
SEPARATOR_BEARING
 48
0.5
100
AcDbCircle
 10
4.46915107109584
 20
10.80278344899818
 30
0.0
 40
0.1045000033439996
100
AcDbArc
 50
327.963312493094
 51
34.41563385856705
  0
ARC
  5
2E9
330
1F
100
AcDbEntity
  8
BEARING_WAVE_GEN
 48
0.5
100
AcDbCircle
 10
4.469605091331805
 20
10.79931302158801
 30
0.0
 40
0.0937500029999997
100
AcDbArc
 50
303.6241184180009
 51
69.69475791784764
  0
ARC
  5
2EA
330
1F
100
AcDbEntity
  8
BEARING_WAVE_GEN
 48
0.5
100
AcDbCircle
 10
4.718160272187519
 20
10.79446234922052
 30
0.0
 40
0.0937500029999997
100
AcDbArc
 50
286.4812612751448
 51
52.55190077499253
  0
ARC
  5
2EB
330
1F
100
AcDbEntity
  8
BEARING_WAVE_GEN
 48
0.5
100
AcDbCircle
 10
4.230662758989131
 20
10.73068526650831
 30
0.0
 40
0.0937500029999997
100
AcDbArc
 50
142.3549315231445
 51
268.4255710229923
  0
ARC
  5
2EC
330
1F
100
AcDbEntity
  8
SEPARATOR_BEARING
 48
0.5
100
AcDbCircle
 10
4.229205983161789
 20
10.73386768775209
 30
0.0
 40
0.1045000033439996
100
AcDbArc
 50
345.1061696359507
 51
51.55849100142645
  0
ARC
  5
2ED
330
1F
100
AcDbEntity
  8
SEPARATOR_BEARING
 48
0.5
100
AcDbCircle
 10
4.447584867998436
 20
10.79967618894457
 30
0.0
 40
0.1045000033439996
100
AcDbArc
 50
161.9818816693832
 51
228.4342030348518
  0
ARC
  5
2EE
330
1F
100
AcDbEntity
  8
BEARING_WAVE_GEN
 48
0.5
100
AcDbCircle
 10
4.230662758989131
 20
10.73068526650831
 30
0.0
 40
0.0937500029999997
100
AcDbArc
 50
320.7669755608598
 51
86.83761506070743
  0
LINE
  5
2EF
330
1F
100
AcDbEntity
  8
LINE_CENTER
100
AcDbLine
 10
4.577791627564254
 20
9.882359747277067
 30
0.0
 11
4.577791627564254
 21
8.549409747277067
 31
0.0
  0
ARC
  5
2F0
330
1F
100
AcDbEntity
  8
SEPARATOR_BEARING
 48
0.5
100
AcDbCircle
 10
4.092599228130538
 20
9.289721753592443
 30
0.0
 40
0.1045000033439996
100
AcDbArc
 50
105.1061696359524
 51
171.5584910014245
  0
ARC
  5
2F1
330
1F
100
AcDbEntity
  8
SEPARATOR_BEARING
 48
0.5
100
AcDbCircle
 10
4.577791627564254
 20
9.972359747277067
 30
0.0
 40
0.8975000287199968
100
AcDbArc
 50
225.2221468431069
 51
228.3182258277002
  0
ARC
  5
2F2
330
1F
100
AcDbEntity
  8
SEPARATOR_BEARING
 48
0.5
100
AcDbCircle
 10
3.926417951894566
 20
9.445939164914866
 30
0.0
 40
0.1045000033439996
100
AcDbArc
 50
281.9818816693826
 51
348.4342030348546
  0
ARC
  5
2F3
330
1F
100
AcDbEntity
  8
BEARING_WAVE_GEN
 48
0.5
100
AcDbCircle
 10
4.094626897859525
 20
9.292574569088444
 30
0.0
 40
0.0937500029999997
100
AcDbArc
 50
80.76697556086033
 51
206.8376150607064
  0
ARC
  5
2F4
330
1F
100
AcDbEntity
  8
BEARING_WAVE_GEN
 48
0.5
100
AcDbCircle
 10
4.094626897859525
 20
9.292574569088444
 30
0.0
 40
0.0937500029999997
100
AcDbArc
 50
262.3549315231487
 51
28.42557102299032
  0
CIRCLE
  5
2F5
330
1F
100
AcDbEntity
  8
SPLINE_STATIC
100
AcDbCircle
 10
3.555015625694832
 20
9.381859747277067
 30
0.0
 40
0.065
  0
CIRCLE
  5
2F6
330
1F
100
AcDbEntity
  8
LINE_HIDDEN
100
AcDbCircle
 10
3.555015625694832
 20
9.381859747277067
 30
0.0
 40
0.079
  0
ARC
  5
2F7
330
1F
100
AcDbEntity
  8
SEPARATOR_BEARING
 48
0.5
100
AcDbCircle
 10
3.9842855212992
 20
9.305796319833216
 30
0.0
 40
0.00500000016
100
AcDbArc
 50
228.3182258277103
 51
351.5584910014298
  0
CIRCLE
  5
2F8
330
1F
100
AcDbEntity
  8
LINE_HIDDEN
100
AcDbCircle
 10
4.577791627564254
 20
8.791359747277066
 30
0.0
 40
0.079
  0
CIRCLE
  5
2F9
330
1F
100
AcDbEntity
  8
SPLINE_STATIC
100
AcDbCircle
 10
4.577791627564254
 20
8.791359747277066
 30
0.0
 40
0.065
  0
ARC
  5
2FA
330
1F
100
AcDbEntity
  8
BEARING_WAVE_GEN
 48
0.5
100
AcDbCircle
 10
4.316462749902324
 20
9.180360213050219
 30
0.0
 40
0.0937500029999997
100
AcDbArc
 50
97.90983270371729
 51
223.9804722035608
  0
ARC
  5
2FB
330
1F
100
AcDbEntity
  8
SEPARATOR_BEARING
 48
0.5
100
AcDbCircle
 10
4.219503520450333
 20
9.287972488122491
 30
0.0
 40
0.00500000016
100
AcDbArc
 50
62.36719497491189
 51
185.5770601777394
  0
ARC
  5
2FC
330
1F
100
AcDbEntity
  8
SEPARATOR_BEARING
 48
0.5
100
AcDbCircle
 10
4.256936827643135
 20
9.269644665924763
 30
0.0
 40
0.00500000016
100
AcDbArc
 50
302.2490267788066
 51
65.45889198161455
  0
ARC
  5
2FD
330
1F
100
AcDbEntity
  8
SEPARATOR_BEARING
 48
0.5
100
AcDbCircle
 10
4.577791627564254
 20
9.972359747277067
 30
0.0
 40
0.8975000287199968
100
AcDbArc
 50
242.3650039859613
 51
245.4610829705568
  0
ARC
  5
2FE
330
1F
100
AcDbEntity
  8
SEPARATOR_BEARING
 48
0.5
100
AcDbCircle
 10
4.16381687942534
 20
9.181675733980396
 30
0.0
 40
0.00500000016
100
AcDbArc
 50
119.1247388122413
 51
242.3650039859746
  0
ARC
  5
2FF
330
1F
100
AcDbEntity
  8
SEPARATOR_BEARING
 48
0.5
100
AcDbCircle
 10
4.207126351661504
 20
9.160470866814021
 30
0.0
 40
0.00500000016
100
AcDbArc
 50
245.4610829705638
 51
8.701348144286791
  0
ARC
  5
300
330
1F
100
AcDbEntity
  8
SEPARATOR_BEARING
 48
0.5
100
AcDbCircle
 10
4.315366045979306
 20
9.177036473997707
 30
0.0
 40
0.1045000033439996
100
AcDbArc
 50
122.2490267788067
 51
188.7013481442814
  0
ARC
  5
301
330
1F
100
AcDbEntity
  8
SEPARATOR_BEARING
 48
0.5
100
AcDbCircle
 10
4.110521847256978
 20
9.27733079298696
 30
0.0
 40
0.1045000033439996
100
AcDbArc
 50
299.1247388122394
 51
5.577060177711055
  0
ARC
  5
302
330
1F
100
AcDbEntity
  8
SEPARATOR_BEARING
 48
0.5
100
AcDbCircle
 10
4.577791627564254
 20
9.972359747277067
 30
0.0
 40
0.7675000245599973
100
AcDbArc
 50
242.3671949749113
 51
245.4588919816139
  0
ARC
  5
303
330
1F
100
AcDbEntity
  8
SEPARATOR_BEARING
 48
0.5
100
AcDbCircle
 10
4.577791627564254
 20
9.972359747277067
 30
0.0
 40
0.7675000245599973
100
AcDbArc
 50
259.5100521177705
 51
262.601749124468
  0
ARC
  5
304
330
1F
100
AcDbEntity
  8
SEPARATOR_BEARING
 48
0.5
100
AcDbCircle
 10
4.437147941706307
 20
9.212770620300721
 30
0.0
 40
0.00500000016
100
AcDbArc
 50
79.51005211777074
 51
202.7199173205969
  0
ARC
  5
305
330
1F
100
AcDbEntity
  8
SEPARATOR_BEARING
 48
0.5
100
AcDbCircle
 10
4.561450528387579
 20
9.135019157452546
 30
0.0
 40
0.1045000033439996
100
AcDbArc
 50
139.3918839216634
 51
205.8442052871376
  0
ARC
  5
306
330
1F
100
AcDbEntity
  8
SEPARATOR_BEARING
 48
0.5
100
AcDbCircle
 10
4.577791627564254
 20
9.972359747277067
 30
0.0
 40
0.8975000287199968
100
AcDbArc
 50
259.5078611288211
 51
262.6039401134142
  0
ARC
  5
307
330
1F
100
AcDbEntity
  8
SEPARATOR_BEARING
 48
0.5
100
AcDbCircle
 10
4.41526682020372
 20
9.094782407111534
 30
0.0
 40
0.00500000016
100
AcDbArc
 50
136.2675959551002
 51
259.5078611288279
  0
ARC
  5
308
330
1F
100
AcDbEntity
  8
SEPARATOR_BEARING
 48
0.5
100
AcDbCircle
 10
4.462902418425521
 20
9.087285303739644
 30
0.0
 40
0.00500000016
100
AcDbArc
 50
262.6039401134206
 51
25.84420528714305
  0
ARC
  5
309
330
1F
100
AcDbEntity
  8
SEPARATOR_BEARING
 48
0.5
100
AcDbCircle
 10
4.47832041251882
 20
9.206290712809687
 30
0.0
 40
0.00500000016
100
AcDbArc
 50
319.3918839216631
 51
82.60174912446805
  0
ARC
  5
30A
330
1F
100
AcDbEntity
  8
SEPARATOR_BEARING
 48
0.5
100
AcDbCircle
 10
4.336144713179388
 20
9.170478793732058
 30
0.0
 40
0.1045000033439996
100
AcDbArc
 50
316.2675959550937
 51
22.71991732056933
  0
ARC
  5
30B
330
1F
100
AcDbEntity
  8
BEARING_WAVE_GEN
 48
0.5
100
AcDbCircle
 10
4.561518819548297
 20
9.138518491260764
 30
0.0
 40
0.0937500029999997
100
AcDbArc
 50
115.0526898465755
 51
241.1233293464182
  0
ARC
  5
30C
330
1F
100
AcDbEntity
  8
BEARING_WAVE_GEN
 48
0.5
100
AcDbCircle
 10
4.316462749902324
 20
9.180360213050219
 30
0.0
 40
0.0937500029999997
100
AcDbArc
 50
279.4977886660062
 51
45.56842816584498
  0
ARC
  5
30D
330
1F
100
AcDbEntity
  8
BEARING_WAVE_GEN
 48
0.5
100
AcDbCircle
 10
4.808020799598537
 20
9.170767224320419
 30
0.0
 40
0.0937500029999997
100
AcDbArc
 50
132.1955469894313
 51
258.2661864892782
  0
ARC
  5
30E
330
1F
100
AcDbEntity
  8
SEPARATOR_BEARING
 48
0.5
100
AcDbCircle
 10
4.708542451373567
 20
9.21100535524561
 30
0.0
 40
0.00500000016
100
AcDbArc
 50
336.5347410645213
 51
99.74460626732593
  0
ARC
  5
30F
330
1F
100
AcDbEntity
  8
SEPARATOR_BEARING
 48
0.5
100
AcDbCircle
 10
4.577791627564254
 20
9.972359747277067
 30
0.0
 40
0.7675000245599973
100
AcDbArc
 50
276.6529092606219
 51
279.7446062673253
  0
ARC
  5
310
330
1F
100
AcDbEntity
  8
SEPARATOR_BEARING
 48
0.5
100
AcDbCircle
 10
4.728886895604507
 20
9.09274248905878
 30
0.0
 40
0.00500000016
100
AcDbArc
 50
279.7467972562818
 51
42.98706242999895
  0
ARC
  5
311
330
1F
100
AcDbEntity
  8
SEPARATOR_BEARING
 48
0.5
100
AcDbCircle
 10
4.681157803344445
 20
9.085865678101098
 30
0.0
 40
0.00500000016
100
AcDbArc
 50
153.4104530979544
 51
276.6507182716872
  0
ARC
  5
312
330
1F
100
AcDbEntity
  8
SEPARATOR_BEARING
 48
0.5
100
AcDbCircle
 10
4.577791627564254
 20
9.972359747277067
 30
0.0
 40
0.8975000287199968
100
AcDbArc
 50
276.6507182716805
 51
279.7467972562689
  0
ARC
  5
313
330
1F
100
AcDbEntity
  8
SEPARATOR_BEARING
 48
0.5
100
AcDbCircle
 10
4.583238967894878
 20
9.134877436196214
 30
0.0
 40
0.1045000033439996
100
AcDbArc
 50
333.4104530979542
 51
39.86277446342722
  0
ARC
  5
314
330
1F
100
AcDbEntity
  8
SEPARATOR_BEARING
 48
0.5
100
AcDbCircle
 10
4.667289171655389
 20
9.205061579812785
 30
0.0
 40
0.00500000016
100
AcDbArc
 50
96.65290926062867
 51
219.8627744634551
  0
ARC
  5
315
330
1F
100
AcDbEntity
  8
SEPARATOR_BEARING
 48
0.5
100
AcDbCircle
 10
4.808986989169405
 20
9.167403226921923
 30
0.0
 40
0.1045000033439996
100
AcDbArc
 50
156.5347410645216
 51
222.9870624299957
  0
ARC
  5
316
330
1F
100
AcDbEntity
  8
BEARING_WAVE_GEN
 48
0.5
100
AcDbCircle
 10
4.561518819548297
 20
9.138518491260764
 30
0.0
 40
0.0937500029999997
100
AcDbArc
 50
296.6406458088588
 51
62.71128530870764
  0
ARC
  5
317
330
1F
100
AcDbEntity
  8
SEPARATOR_BEARING
 48
0.5
100
AcDbCircle
 10
4.927146705742311
 20
9.283369676562266
 30
0.0
 40
0.00500000016
100
AcDbArc
 50
353.6775982073777
 51
116.8874634101848
  0
ARC
  5
318
330
1F
100
AcDbEntity
  8
SEPARATOR_BEARING
 48
0.5
100
AcDbCircle
 10
4.889478152058508
 20
9.265530348736589
 30
0.0
 40
0.00500000016
100
AcDbArc
 50
113.7957664034857
 51
237.0056316063103
  0
ARC
  5
319
330
1F
100
AcDbEntity
  8
SEPARATOR_BEARING
 48
0.5
100
AcDbCircle
 10
4.577791627564254
 20
9.972359747277067
 30
0.0
 40
0.8975000287199968
100
AcDbArc
 50
293.7935754145356
 51
296.8896543991308
  0
ARC
  5
31A
330
1F
100
AcDbEntity
  8
SEPARATOR_BEARING
 48
0.5
100
AcDbCircle
 10
4.9378642481521
 20
9.155717837452085
 30
0.0
 40
0.00500000016
100
AcDbArc
 50
170.5533102408123
 51
293.7935754145423
  0
ARC
  5
31B
330
1F
100
AcDbEntity
  8
SEPARATOR_BEARING
 48
0.5
100
AcDbCircle
 10
4.981445895147452
 20
9.176357527907375
 30
0.0
 40
0.00500000016
100
AcDbArc
 50
296.8896543991376
 51
60.12991957285802
  0
ARC
  5
31C
330
1F
100
AcDbEntity
  8
SEPARATOR_BEARING
 48
0.5
100
AcDbCircle
 10
4.829849202516726
 20
9.173690057230501
 30
0.0
 40
0.1045000033439996
100
AcDbArc
 50
350.5533102408097
 51
57.00563160628544
  0
ARC
  5
31D
330
1F
100
AcDbEntity
  8
BEARING_WAVE_GEN
 48
0.5
100
AcDbCircle
 10
4.808020799598537
 20
9.170767224320419
 30
0.0
 40
0.0937500029999997
100
AcDbArc
 50
313.7835029517165
 51
79.85414245156483
  0
ARC
  5
31E
330
1F
100
AcDbEntity
  8
SEPARATOR_BEARING
 48
0.5
100
AcDbCircle
 10
4.577791627564254
 20
9.972359747277067
 30
0.0
 40
0.7675000245599973
100
AcDbArc
 50
293.7957664034795
 51
296.8874634101847
  0
ARC
  5
31F
330
1F
100
AcDbEntity
  8
SEPARATOR_BEARING
 48
0.5
100
AcDbCircle
 10
5.035980727488507
 20
9.271311215718371
 30
0.0
 40
0.1045000033439996
100
AcDbArc
 50
173.6775982073805
 51
240.1299195728556
  0
LINE
  5
320
330
1F
100
AcDbEntity
  8
LINE_CENTER
100
AcDbLine
 10
4.487791627564254
 20
9.972359747277067
 30
0.0
 11
3.154841627564255
 21
9.972359747277067
 31
0.0
  0
ARC
  5
321
330
1F
100
AcDbEntity
  8
SEPARATOR_BEARING
 48
0.5
100
AcDbCircle
 10
4.060007869984525
 20
10.69930973274114
 30
0.0
 40
0.00500000016
100
AcDbArc
 50
125.4610829705663
 51
248.7013481442886
  0
ARC
  5
322
330
1F
100
AcDbEntity
  8
SEPARATOR_BEARING
 48
0.5
100
AcDbCircle
 10
4.577791627564254
 20
9.972359747277067
 30
0.0
 40
0.8975000287199968
100
AcDbArc
 50
122.3650039859675
 51
125.4610829705581
  0
ARC
  5
323
330
1F
100
AcDbEntity
  8
BEARING_WAVE_GEN
 48
0.5
100
AcDbCircle
 10
4.022564349969321
 20
10.59467696118819
 30
0.0
 40
0.0937500029999997
100
AcDbArc
 50
337.909832703717
 51
103.9804722035619
  0
CIRCLE
  5
324
330
1F
100
AcDbEntity
  8
WAVE_GENERATOR
100
AcDbCircle
 10
4.046791627564254
 20
9.972359747277067
 30
0.0
 40
0.06425
  0
ARC
  5
325
330
1F
100
AcDbEntity
  8
SEPARATOR_BEARING
 48
0.5
100
AcDbCircle
 10
4.577791627564254
 20
9.972359747277067
 30
0.0
 40
0.7675000245599973
100
AcDbArc
 50
225.2243378320518
 51
228.3160348387534
  0
ARC
  5
326
330
1F
100
AcDbEntity
  8
SEPARATOR_BEARING
 48
0.5
100
AcDbCircle
 10
4.577791627564254
 20
9.972359747277067
 30
0.0
 40
0.7675000245599973
100
AcDbArc
 50
173.7957664034803
 51
176.887463410182
  0
ARC
  5
327
330
1F
100
AcDbEntity
  8
SEPARATOR_BEARING
 48
0.5
100
AcDbCircle
 10
4.577791627564254
 20
9.972359747277067
 30
0.0
 40
0.8975000287199968
100
AcDbArc
 50
173.7935754145361
 51
176.889654399128
  0
ARC
  5
328
330
1F
100
AcDbEntity
  8
SEPARATOR_BEARING
 48
0.5
100
AcDbCircle
 10
3.760094599275038
 20
10.15340632917518
 30
0.0
 40
0.1045000033439996
100
AcDbArc
 50
230.5533102408083
 51
297.0056316062811
  0
ARC
  5
329
330
1F
100
AcDbEntity
  8
SEPARATOR_BEARING
 48
0.5
100
AcDbCircle
 10
3.800191466121664
 20
9.661322315744342
 30
0.0
 40
0.1045000033439996
100
AcDbArc
 50
264.8390245265214
 51
331.2913458919922
  0
ARC
  5
32A
330
1F
100
AcDbEntity
  8
SEPARATOR_BEARING
 48
0.5
100
AcDbCircle
 10
3.814180313037202
 20
9.510348858546208
 30
0.0
 40
0.00500000016
100
AcDbArc
 50
211.1753686848453
 51
334.4156338585662
  0
ARC
  5
32B
330
1F
100
AcDbEntity
  8
SEPARATOR_BEARING
 48
0.5
100
AcDbCircle
 10
3.912943884203248
 20
9.46306241463356
 30
0.0
 40
0.1045000033439996
100
AcDbArc
 50
87.9633124930906
 51
154.415633858563
  0
ARC
  5
32C
330
1F
100
AcDbEntity
  8
BEARING_WAVE_GEN
 48
0.5
100
AcDbCircle
 10
3.915722352384447
 20
9.465190821396848
 30
0.0
 40
0.0937500029999997
100
AcDbArc
 50
63.62411841799602
 51
189.694757917843
  0
ARC
  5
32D
330
1F
100
AcDbEntity
  8
BEARING_WAVE_GEN
 48
0.5
100
AcDbCircle
 10
3.795645567452293
 20
9.682871258443881
 30
0.0
 40
0.0937500029999997
100
AcDbArc
 50
228.0692172374302
 51
354.1398567372772
  0
ARC
  5
32E
330
1F
100
AcDbEntity
  8
SEPARATOR_BEARING
 48
0.5
100
AcDbCircle
 10
4.577791627564254
 20
9.972359747277051
 30
0.0
 40
0.8975000287199968
100
AcDbArc
 50
208.0792897002428
 51
211.1753686848361
  0
ARC
  5
32F
330
1F
100
AcDbEntity
  8
SEPARATOR_BEARING
 48
0.5
100
AcDbCircle
 10
3.790341474783915
 20
9.552266236418054
 30
0.0
 40
0.00500000016
100
AcDbArc
 50
84.83902452652168
 51
208.0792897002538
  0
ARC
  5
330
330
1F
100
AcDbEntity
  8
SEPARATOR_BEARING
 48
0.5
100
AcDbCircle
 10
3.916835450514444
 20
9.572493244288748
 30
0.0
 40
0.00500000016
100
AcDbArc
 50
267.9633124930841
 51
31.17317769589186
  0
ARC
  5
331
330
1F
100
AcDbEntity
  8
SEPARATOR_BEARING
 48
0.5
100
AcDbCircle
 10
3.949150411717383
 20
9.33882480529032
 30
0.0
 40
0.00500000016
100
AcDbArc
 50
101.9818816693824
 51
225.2221468431152
  0
ARC
  5
332
330
1F
100
AcDbEntity
  8
SEPARATOR_BEARING
 48
0.5
100
AcDbCircle
 10
4.033694569832868
 20
9.423985167304159
 30
0.0
 40
0.00500000016
100
AcDbArc
 50
45.22433783205705
 51
168.4342030348834
  0
ARC
  5
333
330
1F
100
AcDbEntity
  8
SEPARATOR_BEARING
 48
0.5
100
AcDbCircle
 10
4.577791627564254
 20
9.972359747277051
 30
0.0
 40
0.7675000245599973
100
AcDbArc
 50
208.0814806891886
 51
211.1731776958917
  0
ARC
  5
334
330
1F
100
AcDbEntity
  8
BEARING_WAVE_GEN
 48
0.5
100
AcDbCircle
 10
3.915722352384447
 20
9.465190821396848
 30
0.0
 40
0.0937500029999997
100
AcDbArc
 50
245.2120743802806
 51
11.28271388012632
  0
ARC
  5
335
330
1F
100
AcDbEntity
  8
SEPARATOR_BEARING
 48
0.5
100
AcDbCircle
 10
3.896231030525472
 20
9.608723334418623
 30
0.0
 40
0.00500000016
100
AcDbArc
 50
28.08148068919138
 51
151.2913458920191
  0
ARC
  5
336
330
1F
100
AcDbEntity
  8
BEARING_WAVE_GEN
 48
0.5
100
AcDbCircle
 10
3.745065892352521
 20
9.92627401812305
 30
0.0
 40
0.0937500029999997
100
AcDbArc
 50
29.33840413228644
 51
155.4090436321323
  0
ARC
  5
337
330
1F
100
AcDbEntity
  8
SEPARATOR_BEARING
 48
0.5
100
AcDbCircle
 10
3.819327141244388
 20
9.825772192607688
 30
0.0
 40
0.00500000016
100
AcDbArc
 50
10.93862354634125
 51
134.1484887491704
  0
ARC
  5
338
330
1F
100
AcDbEntity
  8
SEPARATOR_BEARING
 48
0.5
100
AcDbCircle
 10
3.743058167135056
 20
9.904342507330792
 30
0.0
 40
0.1045000033439996
100
AcDbArc
 50
247.6961673836667
 51
314.1484887491373
  0
ARC
  5
339
330
1F
100
AcDbEntity
  8
SEPARATOR_BEARING
 48
0.5
100
AcDbCircle
 10
3.792363179909863
 20
9.681656378694587
 30
0.0
 40
0.1045000033439996
100
AcDbArc
 50
70.82045535023839
 51
137.2727767157104
  0
ARC
  5
33A
330
1F
100
AcDbEntity
  8
BEARING_WAVE_GEN
 48
0.5
100
AcDbCircle
 10
3.795645567452293
 20
9.682871258443881
 30
0.0
 40
0.0937500029999997
100
AcDbArc
 50
46.48126127514547
 51
172.55190077499
  0
ARC
  5
33B
330
1F
100
AcDbEntity
  8
BEARING_WAVE_GEN
 48
0.5
100
AcDbCircle
 10
3.745065892352521
 20
9.92627401812305
 30
0.0
 40
0.0937500029999997
100
AcDbArc
 50
210.9263600945733
 51
336.9969995944212
  0
ARC
  5
33C
330
1F
100
AcDbEntity
  8
SEPARATOR_BEARING
 48
0.5
100
AcDbCircle
 10
3.806431184280967
 20
10.01430440999118
 30
0.0
 40
0.00500000016
100
AcDbArc
 50
233.6775982073744
 51
356.8874634101821
  0
ARC
  5
33D
330
1F
100
AcDbEntity
  8
SEPARATOR_BEARING
 48
0.5
100
AcDbCircle
 10
3.686606350329703
 20
10.02078600688885
 30
0.0
 40
0.00500000016
100
AcDbArc
 50
176.8896543991381
 51
300.1299195728559
  0
ARC
  5
33E
330
1F
100
AcDbEntity
  8
SEPARATOR_BEARING
 48
0.5
100
AcDbCircle
 10
3.741571239986519
 20
9.926080612784877
 30
0.0
 40
0.1045000033439996
100
AcDbArc
 50
53.67759820738129
 51
120.1299195728535
  0
ARC
  5
33F
330
1F
100
AcDbEntity
  8
SEPARATOR_BEARING
 48
0.5
100
AcDbCircle
 10
3.711925321123994
 20
9.755953092224338
 30
0.0
 40
0.00500000016
100
AcDbArc
 50
194.0325115419959
 51
317.2727767157172
  0
ARC
  5
340
330
1F
100
AcDbEntity
  8
SEPARATOR_BEARING
 48
0.5
100
AcDbCircle
 10
4.577791627564254
 20
9.972359747277067
 30
0.0
 40
0.8975000287199968
100
AcDbArc
 50
190.9364325573929
 51
194.0325115419853
  0
ARC
  5
341
330
1F
100
AcDbEntity
  8
SEPARATOR_BEARING
 48
0.5
100
AcDbCircle
 10
3.701500939593102
 20
9.803034819535628
 30
0.0
 40
0.00500000016
100
AcDbArc
 50
67.69616738367332
 51
190.9364325574008
  0
ARC
  5
342
330
1F
100
AcDbEntity
  8
SEPARATOR_BEARING
 48
0.5
100
AcDbCircle
 10
4.577791627564254
 20
9.972359747277067
 30
0.0
 40
0.7675000245599973
100
AcDbArc
 50
190.9386235463385
 51
194.0303205530393
  0
ARC
  5
343
330
1F
100
AcDbEntity
  8
SEPARATOR_BEARING
 48
0.5
100
AcDbCircle
 10
3.828337158129695
 20
9.785078444320902
 30
0.0
 40
0.00500000016
100
AcDbArc
 50
250.8204553502319
 51
14.03032055304191
  0
CIRCLE
  5
344
330
1F
100
AcDbEntity
  8
SPLINE_STATIC
100
AcDbCircle
 10
3.555015625694832
 20
10.56285974727706
 30
0.0
 40
0.065
  0
CIRCLE
  5
345
330
1F
100
AcDbEntity
  8
LINE_HIDDEN
100
AcDbCircle
 10
3.555015625694832
 20
10.56285974727706
 30
0.0
 40
0.079
  0
ARC
  5
346
330
1F
100
AcDbEntity
  8
BEARING_WAVE_GEN
 48
0.5
100
AcDbCircle
 10
3.863800321138592
 20
10.40337304041793
 30
0.0
 40
0.0937500029999997
100
AcDbArc
 50
176.6406458088589
 51
302.7112853087032
  0
ARC
  5
347
330
1F
100
AcDbEntity
  8
BEARING_WAVE_GEN
 48
0.5
100
AcDbCircle
 10
3.863800321138592
 20
10.40337304041793
 30
0.0
 40
0.0937500029999997
100
AcDbArc
 50
355.0526898465753
 51
121.1233293464178
  0
ARC
  5
348
330
1F
100
AcDbEntity
  8
BEARING_WAVE_GEN
 48
0.5
100
AcDbCircle
 10
3.768477553183003
 20
10.17377169708144
 30
0.0
 40
0.0937500029999997
100
AcDbArc
 50
193.7835029517233
 51
319.8541424515672
  0
ARC
  5
349
330
1F
100
AcDbEntity
  8
SEPARATOR_BEARING
 48
0.5
100
AcDbCircle
 10
3.849787000782816
 20
10.3863833677081
 30
0.0
 40
0.1045000033439996
100
AcDbArc
 50
213.4104530979585
 51
279.862774463432
  0
ARC
  5
34A
330
1F
100
AcDbEntity
  8
SEPARATOR_BEARING
 48
0.5
100
AcDbCircle
 10
3.765081151192191
 20
10.17461695106742
 30
0.0
 40
0.1045000033439996
100
AcDbArc
 50
36.53474106452771
 51
102.9870624300042
  0
ARC
  5
34B
330
1F
100
AcDbEntity
  8
BEARING_WAVE_GEN
 48
0.5
100
AcDbCircle
 10
3.768477553183003
 20
10.17377169708144
 30
0.0
 40
0.0937500029999997
100
AcDbArc
 50
12.19554698943871
 51
138.2661864892826
  0
ARC
  5
34C
330
1F
100
AcDbEntity
  8
SEPARATOR_BEARING
 48
0.5
100
AcDbCircle
 10
4.577791627564254
 20
9.972359747277067
 30
0.0
 40
0.8975000287199968
100
AcDbArc
 50
156.6507182716833
 51
159.7467972562763
  0
ARC
  5
34D
330
1F
100
AcDbEntity
  8
SEPARATOR_BEARING
 48
0.5
100
AcDbCircle
 10
3.758382155463537
 20
10.32608904774735
 30
0.0
 40
0.00500000016
100
AcDbArc
 50
33.4104530979616
 51
156.6507182716919
  0
ARC
  5
34E
330
1F
100
AcDbEntity
  8
SEPARATOR_BEARING
 48
0.5
100
AcDbCircle
 10
3.809816150039385
 20
10.055845998318
 30
0.0
 40
0.00500000016
100
AcDbArc
 50
353.7957664034855
 51
117.0056316063106
  0
ARC
  5
34F
330
1F
100
AcDbEntity
  8
SEPARATOR_BEARING
 48
0.5
100
AcDbCircle
 10
3.690522677566852
 20
10.06884866555322
 30
0.0
 40
0.00500000016
100
AcDbArc
 50
50.55331024081581
 51
173.7935754145439
  0
ARC
  5
350
330
1F
100
AcDbEntity
  8
SEPARATOR_BEARING
 48
0.5
100
AcDbCircle
 10
3.74047310231989
 20
10.28131603587173
 30
0.0
 40
0.00500000016
100
AcDbArc
 50
159.7467972562871
 51
282.9870624300044
  0
ARC
  5
351
330
1F
100
AcDbEntity
  8
SEPARATOR_BEARING
 48
0.5
100
AcDbCircle
 10
3.868543150217359
 20
10.27850168424996
 30
0.0
 40
0.00500000016
100
AcDbArc
 50
336.6529092606331
 51
99.86277446345869
  0
ARC
  5
352
330
1F
100
AcDbEntity
  8
SEPARATOR_BEARING
 48
0.5
100
AcDbCircle
 10
3.853063970877506
 20
10.23980340830818
 30
0.0
 40
0.00500000016
100
AcDbArc
 50
216.5347410645273
 51
339.7446062673332
  0
ARC
  5
353
330
1F
100
AcDbEntity
  8
SEPARATOR_BEARING
 48
0.5
100
AcDbCircle
 10
4.577791627564254
 20
9.972359747277067
 30
0.0
 40
0.7675000245599973
100
AcDbArc
 50
156.6529092606304
 51
159.7446062673308
  0
ARC
  5
354
330
1F
100
AcDbEntity
  8
SEPARATOR_BEARING
 48
0.5
100
AcDbCircle
 10
4.577791627564254
 20
9.972359747277067
 30
0.0
 40
0.7675000245599973
100
AcDbArc
 50
139.5100521177676
 51
142.6017491244689
  0
ARC
  5
355
330
1F
100
AcDbEntity
  8
SEPARATOR_BEARING
 48
0.5
100
AcDbCircle
 10
3.964091990185587
 20
10.44153886368539
 30
0.0
 40
0.00500000016
100
AcDbArc
 50
199.3918839216649
 51
322.6017491244691
  0
ARC
  5
356
330
1F
100
AcDbEntity
  8
SEPARATOR_BEARING
 48
0.5
100
AcDbCircle
 10
3.990289990093274
 20
10.47395531560011
 30
0.0
 40
0.00500000016
100
AcDbArc
 50
319.5100521177703
 51
82.71991732059637
  0
ARC
  5
357
330
1F
100
AcDbEntity
  8
SEPARATOR_BEARING
 48
0.5
100
AcDbCircle
 10
3.89904976087559
 20
10.55189902927923
 30
0.0
 40
0.00500000016
100
AcDbArc
 50
16.26759595509867
 51
139.5078611288304
  0
ARC
  5
358
330
1F
100
AcDbEntity
  8
SEPARATOR_BEARING
 48
0.5
100
AcDbCircle
 10
3.868739279789839
 20
10.51439394278063
 30
0.0
 40
0.00500000016
100
AcDbArc
 50
142.6039401134253
 51
265.844205287144
  0
ARC
  5
359
330
1F
100
AcDbEntity
  8
SEPARATOR_BEARING
 48
0.5
100
AcDbCircle
 10
4.577791627564254
 20
9.972359747277067
 30
0.0
 40
0.8975000287199968
100
AcDbArc
 50
139.5078611288203
 51
142.6039401134159
  0
ARC
  5
35A
330
1F
100
AcDbEntity
  8
SEPARATOR_BEARING
 48
0.5
100
AcDbCircle
 10
4.004165808175809
 20
10.582572590653
 30
0.0
 40
0.1045000033439996
100
AcDbArc
 50
196.267595955096
 51
262.7199173205704
  0
ARC
  5
35B
330
1F
100
AcDbEntity
  8
SEPARATOR_BEARING
 48
0.5
100
AcDbCircle
 10
3.860803954744716
 20
10.4051818492021
 30
0.0
 40
0.1045000033439996
100
AcDbArc
 50
19.39188392166494
 51
85.84420528713762
  0
ARC
  5
35C
330
1F
100
AcDbEntity
  8
BEARING_WAVE_GEN
 48
0.5
100
AcDbCircle
 10
4.022564349969321
 20
10.59467696118819
 30
0.0
 40
0.0937500029999997
100
AcDbArc
 50
159.4977886660014
 51
285.5684281658449
  0
ARC
  5
35D
330
1F
100
AcDbEntity
  8
WAVE_GENERATOR
100
AcDbCircle
 10
4.577791627564254
 20
9.972359747277067
 30
0.0
 40
0.17715
100
AcDbArc
 50
109.4712206344904
 51
70.52877936550935
  0
CIRCLE
  5
35E
330
1F
100
AcDbEntity
  8
WAVE_GENERATOR
100
AcDbCircle
 10
4.577791627564254
 20
9.972359747277067
 30
0.0
 40
0.3934999999999995
  0
LINE
  5
35F
330
1F
100
AcDbEntity
  8
LINE_CENTER
100
AcDbLine
 10
4.532791627564254
 20
9.972359747277067
 30
0.0
 11
4.622791627564254
 21
9.972359747277067
 31
0.0
  0
ARC
  5
360
330
1F
100
AcDbEntity
  8
SEPARATOR_BEARING
 48
0.5
100
AcDbCircle
 10
4.064062599788487
 20
9.395437937832335
 30
0.0
 40
0.00500000016
100
AcDbArc
 50
285.1061696359461
 51
48.31603483875337
  0
LINE
  5
361
330
1F
100
AcDbEntity
  8
LINE_CENTER
100
AcDbLine
 10
4.577791627564254
 20
9.927359747277066
 30
0.0
 11
4.577791627564254
 21
10.01735974727706
 31
0.0
  0
LINE
  5
362
330
1F
100
AcDbEntity
  8
WAVE_GENERATOR
100
AcDbLine
 10
4.518741627564253
 20
10.20420974727706
 30
0.0
 11
4.636841627564255
 21
10.20420974727706
 31
0.0
  0
LINE
  5
363
330
1F
100
AcDbEntity
  8
WAVE_GENERATOR
100
AcDbLine
 10
4.518741627564253
 20
10.20420974727706
 30
0.0
 11
4.518741627564253
 21
10.13937836899333
 31
0.0
  0
ARC
  5
364
330
1F
100
AcDbEntity
  8
SEPARATOR_BEARING
 48
0.5
100
AcDbCircle
 10
4.164238928666964
 20
10.62483997948886
 30
0.0
 40
0.00500000016
100
AcDbArc
 50
302.3671949749114
 51
65.57706017773945
  0
ARC
  5
365
330
1F
100
AcDbEntity
  8
SEPARATOR_BEARING
 48
0.5
100
AcDbCircle
 10
4.100026559752564
 20
10.72621440233896
 30
0.0
 40
0.00500000016
100
AcDbArc
 50
359.1247388122412
 51
122.3650039859744
  0
ARC
  5
366
330
1F
100
AcDbEntity
  8
SEPARATOR_BEARING
 48
0.5
100
AcDbCircle
 10
4.209513786936909
 20
10.72454172458898
 30
0.0
 40
0.1045000033439996
100
AcDbArc
 50
179.1247388122385
 51
245.577060177711
  0
ARC
  5
367
330
1F
100
AcDbEntity
  8
SEPARATOR_BEARING
 48
0.5
100
AcDbCircle
 10
4.129649915451288
 20
10.60158569561108
 30
0.0
 40
0.00500000016
100
AcDbArc
 50
182.2490267788071
 51
305.4588919816112
  0
ARC
  5
368
330
1F
100
AcDbEntity
  8
SEPARATOR_BEARING
 48
0.5
100
AcDbCircle
 10
4.020234259475805
 20
10.59728860417222
 30
0.0
 40
0.1045000033439996
100
AcDbArc
 50
2.249026778807317
 51
68.70134814428168
  0
ARC
  5
369
330
1F
100
AcDbEntity
  8
SEPARATOR_BEARING
 48
0.5
100
AcDbCircle
 10
4.577791627564254
 20
9.972359747277067
 30
0.0
 40
0.7675000245599973
100
AcDbArc
 50
122.3671949749093
 51
125.4588919816111
  0
ARC
  5
36A
330
1F
100
AcDbEntity
  8
SEPARATOR_BEARING
 48
0.5
100
AcDbCircle
 10
4.374933839383771
 20
10.71774891138326
 30
0.0
 40
0.00500000016
100
AcDbArc
 50
285.2243378320557
 51
48.43420303488569
  0
ARC
  5
36B
330
1F
100
AcDbEntity
  8
SEPARATOR_BEARING
 48
0.5
100
AcDbCircle
 10
4.335027198475703
 20
10.70572304071471
 30
0.0
 40
0.00500000016
100
AcDbArc
 50
165.1061696359481
 51
288.3160348387547
  0
ARC
  5
36C
330
1F
100
AcDbEntity
  8
SEPARATOR_BEARING
 48
0.5
100
AcDbCircle
 10
4.577791627564254
 20
9.972359747277067
 30
0.0
 40
0.7675000245599973
100
AcDbArc
 50
105.2243378320556
 51
108.3160348387547
  0
LINE
  5
36D
330
1F
100
AcDbEntity
  8
WAVE_GENERATOR
100
AcDbLine
 10
4.636841627564255
 20
10.20420974727706
 30
0.0
 11
4.636841627564255
 21
10.13937836899333
 31
0.0
  0
ARC
  5
36E
330
1F
100
AcDbEntity
  8
SEPARATOR_BEARING
 48
0.5
100
AcDbCircle
 10
4.577791627564254
 20
9.972359747277067
 30
0.0
 40
0.7675000245599973
100
AcDbArc
 50
88.08148068919733
 51
91.17317769589396
  0
ARC
  5
36F
330
1F
100
AcDbEntity
  8
SEPARATOR_BEARING
 48
0.5
100
AcDbCircle
 10
4.603653554807195
 20
10.74442674496034
 30
0.0
 40
0.00500000016
100
AcDbArc
 50
268.0814806891973
 51
31.29134589202545
  0
ARC
  5
370
330
1F
100
AcDbEntity
  8
SEPARATOR_BEARING
 48
0.5
100
AcDbCircle
 10
4.56197516637882
 20
10.74469783888459
 30
0.0
 40
0.00500000016
100
AcDbArc
 50
147.9633124930935
 51
271.1731776959004
  0
ARC
  5
371
330
1F
100
AcDbEntity
  8
SEPARATOR_BEARING
 48
0.5
100
AcDbCircle
 10
4.99979699266948
 20
10.61940515527776
 30
0.0
 40
0.00500000016
100
AcDbArc
 50
113.6775982073755
 51
236.8874634101854
  0
ARC
  5
372
330
1F
100
AcDbEntity
  8
SEPARATOR_BEARING
 48
0.5
100
AcDbCircle
 10
4.577791627564254
 20
9.972359747277067
 30
0.0
 40
0.7675000245599973
100
AcDbArc
 50
70.93862354633656
 51
74.03032055304068
  0
ARC
  5
373
330
1F
100
AcDbEntity
  8
SEPARATOR_BEARING
 48
0.5
100
AcDbCircle
 10
4.79032849626764
 20
10.71504700826525
 30
0.0
 40
0.00500000016
100
AcDbArc
 50
130.8204553502338
 51
254.0303205530405
  0
ARC
  5
374
330
1F
100
AcDbEntity
  8
SEPARATOR_BEARING
 48
0.5
100
AcDbCircle
 10
4.830075324501866
 20
10.70250303763306
 30
0.0
 40
0.00500000016
100
AcDbArc
 50
250.9386235463435
 51
14.14848874916863
  0
CIRCLE
  5
375
330
1F
100
AcDbEntity
  8
SPLINE_STATIC
100
AcDbCircle
 10
4.577791627564254
 20
11.15335974727706
 30
0.0
 40
0.065
  0
CIRCLE
  5
376
330
1F
100
AcDbEntity
  8
LINE_HIDDEN
100
AcDbCircle
 10
4.577791627564254
 20
11.15335974727706
 30
0.0
 40
0.079
  0
ARC
  5
377
330
1F
100
AcDbEntity
  8
SEPARATOR_BEARING
 48
0.5
100
AcDbCircle
 10
4.297283819296776
 20
10.81963282632571
 30
0.0
 40
0.00500000016
100
AcDbArc
 50
108.3182258277087
 51
231.5584910014274
  0
ARC
  5
378
330
1F
100
AcDbEntity
  8
SEPARATOR_BEARING
 48
0.5
100
AcDbCircle
 10
4.577791627564254
 20
9.972359747277067
 30
0.0
 40
0.8975000287199968
100
AcDbArc
 50
105.2221468431056
 51
108.3182258277018
  0
ARC
  5
379
330
1F
100
AcDbEntity
  8
SEPARATOR_BEARING
 48
0.5
100
AcDbCircle
 10
4.343454881542069
 20
10.83354648105976
 30
0.0
 40
0.00500000016
100
AcDbArc
 50
341.9818816693835
 51
105.2221468431125
  0
ARC
  5
37A
330
1F
100
AcDbEntity
  8
SEPARATOR_BEARING
 48
0.5
100
AcDbCircle
 10
4.577791627564254
 20
9.972359747277067
 30
0.0
 40
0.8975000287199968
100
AcDbArc
 50
88.07928970024935
 51
91.17536868484526
  0
ARC
  5
37B
330
1F
100
AcDbEntity
  8
SEPARATOR_BEARING
 48
0.5
100
AcDbCircle
 10
4.607705051585526
 20
10.86435833922826
 30
0.0
 40
0.00500000016
100
AcDbArc
 50
324.8390245265281
 51
88.07928970025583
  0
ARC
  5
37C
330
1F
100
AcDbEntity
  8
SEPARATOR_BEARING
 48
0.5
100
AcDbCircle
 10
4.55948411836184
 20
10.86467198864014
 30
0.0
 40
0.00500000016
100
AcDbArc
 50
91.17536868485178
 51
214.4156338585738
  0
ARC
  5
37D
330
1F
100
AcDbEntity
  8
SEPARATOR_BEARING
 48
0.5
100
AcDbCircle
 10
4.869297282631764
 20
10.81591220803054
 30
0.0
 40
0.00500000016
100
AcDbArc
 50
307.6961673836686
 51
70.93643255739968
  0
ARC
  5
37E
330
1F
100
AcDbEntity
  8
SEPARATOR_BEARING
 48
0.5
100
AcDbCircle
 10
4.823311119960687
 20
10.83042529246168
 30
0.0
 40
0.00500000016
100
AcDbArc
 50
74.03251154199448
 51
197.2727767157149
  0
ARC
  5
37F
330
1F
100
AcDbEntity
  8
SEPARATOR_BEARING
 48
0.5
100
AcDbCircle
 10
4.577791627564254
 20
9.972359747277067
 30
0.0
 40
0.8975000287199968
100
AcDbArc
 50
70.93643255739275
 51
74.03251154198756
  0
LINE
  5
380
330
1F
100
AcDbEntity
  8
LINE_CENTER
100
AcDbLine
 10
7.884303699432496
 20
9.972359747277067
 30
0.0
 11
6.499264329353758
 21
9.972359747277067
 31
0.0
  0
REGION
  5
381
330
1F
100
AcDbEntity
  8
SPLINE_DYNAMIC
100
AcDbModelerGeometry
 70
     1
  1
koo ki n o          
  1
h J1410(1 nl ^ \VL kqoqm QK mk R01 R>& nj nlemnejk mooi 
  1
rn fqfffffffffffffffj:rooh n:rono 
  1
=0;& {rn {n {rn {rn |
  1
3*2/ {rn {rn {m {o |
  1
,7:33 {rn {rn {rn {l {rn {n |
  1
9><: {rn {rn {k {m {rn {j 90-(>-; ;0*=3: 0*+ |
  1
300/ {rn {rn {i {l |
  1
/3>1:r,*-9><: {rn hqnfnhgkonklflnmfj gqhhioofhkhmhhoigg o o o n n o o -:):-,:@) V V V V |
  1
<0:;8: {rn {h {g {rn {f 90-(>-; {k {rn |
  1
<0:;8: {rn {no {i {rn {nn 90-(>-; {k {rn |
  1
<0:;8: {rn {i {nm {rn {nl 90-(>-; {k {rn |
  1
:;8: {rn {nk {nj {i {ni 90-(>-; |
  1
<0:;8: {rn {nh {h {rn {ng -:):-,:; {k {rn |
  1
:;8: {rn {nj {nf {h {mo 90-(>-; |
  1
<0:;8: {rn {g {mn {rn {mm 90-(>-; {k {rn |
  1
:;8: {rn {ml {nk {g {mk 90-(>-; |
  1
):-+:' {rn {f {mj |
  1
):-+:' {rn {f {mi |
  1
,+->687+r<*-): {rn hqklhlgkonklflnlmh gqfijnofhkhmhhoigh o rn o o V V |
  1
<0:;8: {rn {mh {no {rn {mg 90-(>-; {k {rn |
  1
:;8: {rn {mf {nf {no {lo 90-(>-; |
  1
):-+:' {rn {nn {ln |
  1
,+->687+r<*-): {rn iqfkingkonklflnmik gqfijnofhkhmhhoigh o roqhohnoihgnngijkhjh roqhohnoihgnngijkhjh o V V |
  1
<0:;8: {rn {nm {mh {rn {lm 90-(>-; {k {rn |
  1
:;8: {rn {ll {ml {nm {lk 90-(>-; |
  1
):-+:' {rn {mm {lj |
  1
,+->687+r<*-): {rn hqkihlgkonklflnllg gqfljnofhkhmhhoihj o roqhohnoihgnngijkhjh oqhohnoihgnngijkhjh o V V |
  1
/061+ {rn hqklhlgkonklflnlmh gqfijnofhkhmhhoigh o |
  1
/061+ {rn iqfkingkonklflnmik gqfijnofhkhmhhoigh o |
  1
<0:;8: {rn {mn {nh {rn {li 90-(>-; {k {rn |
  1
:;8: {rn {mf {lh {nh {lg 90-(>-; |
  1
):-+:' {rn {ng {lf |
  1
,+->687+r<*-): {rn iqfningkonklflnmjm gqiofkofhkhmhhoiff o o n o V V |
  1
/061+ {rn iqfningkonklflnmjm gqfljnofhkhmhhoihj o |
  1
:;8: {rn {ko {ll {mn {kn 90-(>-; |
  1
):-+:' {rn {lm {km |
  1
,+->687+r<*-): {rn hqkihlgkonklflnllg gqiofkofhkhmhhoiff o o n o V V |
  1
/061+ {rn hqkihlgkonklflnllg gqfljnofhkhmhhoihj o |
  1
:;8: {rn {lh {ko {mh {kl 90-(>-; |
  1
):-+:' {rn {mg {kk |
  1
,+->687+r<*-): {rn iqfningkonklflnmjm gqiofkofhkhmhhoiff o oqhohnoihgnngijkhjh roqhohnoihgnngijkhjh o V V |
  1
/061+ {rn iqfningkonklflnmjm gqiofkofhkhmhhoiff o |
  1
):-+:' {rn {li {kj |
  1
,+->687+r<*-): {rn hqkjmlgkonklflnllm gqjfkkofhkhmhhoifl o oqhohnoihgnngijkhjh oqhohnoihgnngijkhjh o V V |
  1
/061+ {rn hqkihlgkonklflnllg gqiofkofhkhmhhoiff o |
  1
,+->687+r<*-): {rn iqflnngkonklflnmjg gqjfkkofhkhmhhoifl o n o o V V |
  1
/061+ {rn iqflnngkonklflnmjg gqjfkkofhkhmhhoifl o |
  1
/061+ {rn hqkjmlgkonklflnllm gqjfkkofhkhmhhoifl o |
  0
REGION
  5
382
330
1F
100
AcDbEntity
  8
SPLINE_DYNAMIC
100
AcDbModelerGeometry
 70
     1
  1
koo ki n o          
  1
h J1410(1 nl ^ \VL kqoqm QK mk R01 R>& nj nlemnejk mooi 
  1
rn fqfffffffffffffffj:rooh n:rono 
  1
=0;& {rn {n {rn {rn |
  1
3*2/ {rn {rn {m {o |
  1
,7:33 {rn {rn {rn {l {rn {n |
  1
9><: {rn {rn {k {m {rn {j 90-(>-; ;0*=3: 0*+ |
  1
300/ {rn {rn {i {l |
  1
/3>1:r,*-9><: {rn hqnfnhgkonklflnmfj nnqnighofhkhmhhoih o o o n n o o 90-(>-;@) V V V V |
  1
<0:;8: {rn {h {g {rn {f -:):-,:; {k {rn |
  1
<0:;8: {rn {no {i {rn {nn -:):-,:; {k {rn |
  1
<0:;8: {rn {i {nm {rn {nl -:):-,:; {k {rn |
  1
:;8: {rn {nk {nj {i {ni 90-(>-; |
  1
<0:;8: {rn {nh {h {rn {ng -:):-,:; {k {rn |
  1
:;8: {rn {nf {nk {h {mo 90-(>-; |
  1
<0:;8: {rn {g {mn {rn {mm 90-(>-; {k {rn |
  1
:;8: {rn {nj {ml {g {mk 90-(>-; |
  1
):-+:' {rn {f {mj |
  1
):-+:' {rn {f {mi |
  1
,+->687+r<*-): {rn hqklhlgkonklflnlmh noqfhfiofhkhmhhoih o rn o o V V |
  1
<0:;8: {rn {mh {no {rn {mg -:):-,:; {k {rn |
  1
:;8: {rn {mf {nf {no {lo 90-(>-; |
  1
):-+:' {rn {ng {ln |
  1
,+->687+r<*-): {rn hqkihlgkonklflnllg nnqoofiofhkhmhhoig o roqhohnoihgnngijkhjh roqhohnoihgnngijkhjh o V V |
  1
<0:;8: {rn {nm {mh {rn {lm -:):-,:; {k {rn |
  1
:;8: {rn {ll {ml {nm {lk 90-(>-; |
  1
):-+:' {rn {nl {lj |
  1
,+->687+r<*-): {rn iqfkingkonklflnmik noqfhfiofhkhmhhoih o roqhohnoihgnngijkhjh oqhohnoihgnngijkhjh o V V |
  1
/061+ {rn hqklhlgkonklflnlmh noqfhfiofhkhmhhoih o |
  1
/061+ {rn iqfkingkonklflnmik noqfhfiofhkhmhhoih o |
  1
<0:;8: {rn {mn {nh {rn {li -:):-,:; {k {rn |
  1
:;8: {rn {lh {mf {nh {lg 90-(>-; |
  1
):-+:' {rn {mg {lf |
  1
,+->687+r<*-): {rn hqkihlgkonklflnllg nnqlljlofhkhmhhoii o o rn o V V |
  1
/061+ {rn hqkihlgkonklflnllg nnqoofiofhkhmhhoig o |
  1
:;8: {rn {ll {ko {mn {kn 90-(>-; |
  1
):-+:' {rn {mm {km |
  1
,+->687+r<*-): {rn iqfningkonklflnmjm nnqlljlofhkhmhhoii o o rn o V V |
  1
/061+ {rn iqfningkonklflnmjm nnqoofiofhkhmhhoig o |
  1
:;8: {rn {ko {lh {mh {kl 90-(>-; |
  1
):-+:' {rn {li {kk |
  1
,+->687+r<*-): {rn hqkjmlgkonklflnllm nnqljolofhkhmhhoii o oqhohnoihgnngijkhjh roqhohnoihgnngijkhjh o V V |
  1
/061+ {rn hqkihlgkonklflnllg nnqlljlofhkhmhhoii o |
  1
):-+:' {rn {lm {kj |
  1
,+->687+r<*-): {rn iqfningkonklflnmjm nnqlljlofhkhmhhoii o oqhohnoihgnngijkhjh oqhohnoihgnngijkhjh o V V |
  1
/061+ {rn iqfningkonklflnmjm nnqlljlofhkhmhhoii o |
  1
,+->687+r<*-): {rn iqflnngkonklflnmjg nnqljolofhkhmhhoii o n o o V V |
  1
/061+ {rn hqkjmlgkonklflnllm nnqljolofhkhmhhoii o |
  1
/061+ {rn iqflnngkonklflnmjg nnqljolofhkhmhhoii o |
  0
LINE
  5
383
330
1F
100
AcDbEntity
  8
SPLINE_FLEX
100
AcDbLine
 10
6.68695724273958
 20
10.93845974727706
 30
0.0
 11
6.686957242739599
 21
10.36585974727706
 31
0.0
  0
LINE
  5
384
330
1F
100
AcDbEntity
  8
WEAR_WASHER
100
AcDbLine
 10
6.638130471086041
 20
10.89735974727706
 30
0.0
 11
6.638130471086041
 21
10.36585974727706
 31
0.0
  0
LINE
  5
385
330
1F
100
AcDbEntity
  8
WEAR_WASHER
100
AcDbLine
 10
6.670130471086041
 20
10.89735974727706
 30
0.0
 11
6.670130471086041
 21
10.36585974727706
 31
0.0
  0
LINE
  5
386
330
1F
100
AcDbEntity
  8
SPLINE_FLEX
100
AcDbLine
 10
7.048264329353758
 20
10.93845974727706
 30
0.0
 11
7.048264329353758
 21
9.00625974727707
 31
0.0
  0
LWPOLYLINE
  5
387
330
1F
100
AcDbEntity
  8
RETAINER_BEARING
100
AcDbPolyline
 90
        4
 70
     1
 43
0.0
 10
7.048264329353758
 20
10.36685974727706
 10
7.084164329353757
 20
10.36685974727706
 10
7.084164329353757
 20
10.87785974727706
 10
7.048264329353758
 20
10.87785974727706
  0
INSERT
  5
388
330
1F
100
AcDbEntity
  8
DIMENSIONS
100
AcDbBlockReference
  2
BEARING WG 20 1423134-10
 10
6.71726432935376
 20
9.972359747277067
 30
0.0
 41
-0.0393700799999994
 42
0.0393700800000003
 43
0.03937008
  0
CIRCLE
  5
389
330
1F
100
AcDbEntity
  8
LINE_HIDDEN
100
AcDbCircle
 10
5.600567629433676
 20
9.381859747277063
 30
0.0
 40
0.079
  0
CIRCLE
  5
38A
330
1F
100
AcDbEntity
  8
SPLINE_STATIC
100
AcDbCircle
 10
5.600567629433676
 20
9.381859747277063
 30
0.0
 40
0.065
  0
ARC
  5
38B
330
1F
100
AcDbEntity
  8
SEPARATOR_BEARING
 48
0.5
100
AcDbCircle
 10
5.05406301546763
 20
9.283467985129632
 30
0.0
 40
0.1045000033439996
100
AcDbArc
 50
7.696167383667926
 51
74.14848874913833
  0
ARC
  5
38C
330
1F
100
AcDbEntity
  8
SEPARATOR_BEARING
 48
0.5
100
AcDbCircle
 10
5.222262353549606
 20
9.437510443044622
 30
0.0
 40
0.1045000033439996
100
AcDbArc
 50
190.8204553502361
 51
257.2727767157114
  0
ARC
  5
38D
330
1F
100
AcDbEntity
  8
BEARING_WAVE_GEN
 48
0.5
100
AcDbCircle
 10
5.034065907369426
 20
9.274240970775641
 30
0.0
 40
0.0937500029999997
100
AcDbArc
 50
330.9263600945763
 51
96.99699959442035
  0
ARC
  5
38E
330
1F
100
AcDbEntity
  8
SEPARATOR_BEARING
 48
0.5
100
AcDbCircle
 10
5.198138441608072
 20
9.330700857145174
 30
0.0
 40
0.00500000016
100
AcDbArc
 50
314.0325115419958
 51
77.27277671571774
  0
ARC
  5
38F
330
1F
100
AcDbEntity
  8
BEARING_WAVE_GEN
 48
0.5
100
AcDbCircle
 10
5.219569043052938
 20
9.439745634166794
 30
0.0
 40
0.0937500029999997
100
AcDbArc
 50
166.4812612751459
 51
292.5519007749898
  0
ARC
  5
390
330
1F
100
AcDbEntity
  8
SEPARATOR_BEARING
 48
0.5
100
AcDbCircle
 10
4.577791627564254
 20
9.972359747277067
 30
0.0
 40
0.8975000287199968
100
AcDbArc
 50
310.9364325573924
 51
314.032511541988
  0
ARC
  5
391
330
1F
100
AcDbEntity
  8
SEPARATOR_BEARING
 48
0.5
100
AcDbCircle
 10
5.162576660467887
 20
9.298132214265034
 30
0.0
 40
0.00500000016
100
AcDbArc
 50
187.6961673836705
 51
310.9364325574006
  0
ARC
  5
392
330
1F
100
AcDbEntity
  8
SEPARATOR_BEARING
 48
0.5
100
AcDbCircle
 10
4.577791627564254
 20
9.972359747277067
 30
0.0
 40
0.8975000287199968
100
AcDbArc
 50
2.365003985963876
 51
5.461082970557792
  0
ARC
  5
393
330
1F
100
AcDbEntity
  8
SEPARATOR_BEARING
 48
0.5
100
AcDbCircle
 10
5.346788139598356
 20
10.04584888029534
 30
0.0
 40
0.00500000016
100
AcDbArc
 50
62.24902677880881
 51
185.4588919816126
  0
ARC
  5
394
330
1F
100
AcDbEntity
  8
SEPARATOR_BEARING
 48
0.5
100
AcDbCircle
 10
5.39777457723764
 20
10.14275416366126
 30
0.0
 40
0.1045000033439996
100
AcDbArc
 50
242.2490267788088
 51
308.7013481442798
  0
ARC
  5
395
330
1F
100
AcDbEntity
  8
BEARING_WAVE_GEN
 48
0.5
100
AcDbCircle
 10
5.394347782821112
 20
10.14204206759278
 30
0.0
 40
0.0937500029999997
100
AcDbArc
 50
217.909832703719
 51
343.9804722035638
  0
ARC
  5
396
330
1F
100
AcDbEntity
  8
BEARING_WAVE_GEN
 48
0.5
100
AcDbCircle
 10
5.408085225844097
 20
9.893819406234442
 30
0.0
 40
0.0937500029999997
100
AcDbArc
 50
200.7669755608613
 51
326.8376150607056
  0
ARC
  5
397
330
1F
100
AcDbEntity
  8
BEARING_WAVE_GEN
 48
0.5
100
AcDbCircle
 10
5.408085225844097
 20
9.893819406234442
 30
0.0
 40
0.0937500029999997
100
AcDbArc
 50
22.35493152314521
 51
148.4255710229908
  0
ARC
  5
398
330
1F
100
AcDbEntity
  8
BEARING_WAVE_GEN
 48
0.5
100
AcDbCircle
 10
5.348047438976472
 20
9.652575398846332
 30
0.0
 40
0.0937500029999997
100
AcDbArc
 50
5.212074380288359
 51
131.2827138801309
  0
ARC
  5
399
330
1F
100
AcDbEntity
  8
SEPARATOR_BEARING
 48
0.5
100
AcDbCircle
 10
4.577791627564254
 20
9.972359747277067
 30
0.0
 40
0.7675000245599973
100
AcDbArc
 50
328.0814806891951
 51
331.1731776958968
  0
ARC
  5
39A
330
1F
100
AcDbEntity
  8
SEPARATOR_BEARING
 48
0.5
100
AcDbCircle
 10
5.235958025520741
 20
9.454456969247269
 30
0.0
 40
0.1045000033439996
100
AcDbArc
 50
24.83902452652496
 51
91.29134589199649
  0
ARC
  5
39B
330
1F
100
AcDbEntity
  8
BEARING_WAVE_GEN
 48
0.5
100
AcDbCircle
 10
5.348047438976472
 20
9.652575398846332
 30
0.0
 40
0.0937500029999997
100
AcDbArc
 50
183.6241184180036
 51
309.6947579178475
  0
ARC
  5
39C
330
1F
100
AcDbEntity
  8
BEARING_WAVE_GEN
 48
0.5
100
AcDbCircle
 10
5.219569043052938
 20
9.439745634166794
 30
0.0
 40
0.0937500029999997
100
AcDbArc
 50
348.0692172374311
 51
114.1398567372779
  0
ARC
  5
39D
330
1F
100
AcDbEntity
  8
SEPARATOR_BEARING
 48
0.5
100
AcDbCircle
 10
5.233490297360091
 20
9.563929162452227
 30
0.0
 40
0.00500000016
100
AcDbArc
 50
148.0814806891983
 51
271.2913458920295
  0
ARC
  5
39E
330
1F
100
AcDbEntity
  8
SEPARATOR_BEARING
 48
0.5
100
AcDbCircle
 10
4.577791627564254
 20
9.972359747277067
 30
0.0
 40
0.7675000245599973
100
AcDbArc
 50
310.9386235463353
 51
314.030320553039
  0
ARC
  5
39F
330
1F
100
AcDbEntity
  8
SEPARATOR_BEARING
 48
0.5
100
AcDbCircle
 10
5.083972416946505
 20
9.388804011590442
 30
0.0
 40
0.00500000016
100
AcDbArc
 50
130.9386235463427
 51
254.1484887491721
  0
ARC
  5
3A0
330
1F
100
AcDbEntity
  8
SEPARATOR_BEARING
 48
0.5
100
AcDbCircle
 10
5.114709228295421
 20
9.416953789245029
 30
0.0
 40
0.00500000016
100
AcDbArc
 50
10.82045535023348
 51
134.0303205530391
  0
ARC
  5
3A1
330
1F
100
AcDbEntity
  8
SEPARATOR_BEARING
 48
0.5
100
AcDbCircle
 10
4.577791627564254
 20
9.972359747277067
 30
0.0
 40
0.8975000287199968
100
AcDbArc
 50
328.0792897002498
 51
331.1753686848438
  0
ARC
  5
3A2
330
1F
100
AcDbEntity
  8
SEPARATOR_BEARING
 48
0.5
100
AcDbCircle
 10
5.335328356323312
 20
9.500454666184884
 30
0.0
 40
0.00500000016
100
AcDbArc
 50
204.8390245265278
 51
328.0792897002563
  0
ARC
  5
3A3
330
1F
100
AcDbEntity
  8
SEPARATOR_BEARING
 48
0.5
100
AcDbCircle
 10
5.359710451293711
 20
9.542058394644845
 30
0.0
 40
0.00500000016
100
AcDbArc
 50
331.1753686848498
 51
94.415633858572
  0
ARC
  5
3A4
330
1F
100
AcDbEntity
  8
SEPARATOR_BEARING
 48
0.5
100
AcDbCircle
 10
5.254564265799489
 20
9.599888158657854
 30
0.0
 40
0.00500000016
100
AcDbArc
 50
27.96331249309413
 51
151.1731776958971
  0
ARC
  5
3A5
330
1F
100
AcDbEntity
  8
SEPARATOR_BEARING
 48
0.5
100
AcDbCircle
 10
5.351279927393671
 20
9.651233378199444
 30
0.0
 40
0.1045000033439996
100
AcDbArc
 50
207.9633124930945
 51
274.4156338585653
  0
CIRCLE
  5
3A6
330
1F
100
AcDbEntity
  8
WAVE_GENERATOR
100
AcDbCircle
 10
5.108791627564255
 20
9.972359747277067
 30
0.0
 40
0.06425
  0
ARC
  5
3A7
330
1F
100
AcDbEntity
  8
SEPARATOR_BEARING
 48
0.5
100
AcDbCircle
 10
5.469531443514858
 20
10.00918910551185
 30
0.0
 40
0.00500000016
100
AcDbArc
 50
239.1247388122434
 51
2.365003985971644
  0
ARC
  5
3A8
330
1F
100
AcDbEntity
  8
SEPARATOR_BEARING
 48
0.5
100
AcDbCircle
 10
5.349632433575488
 20
10.00426677421984
 30
0.0
 40
0.00500000016
100
AcDbArc
 50
182.367194974914
 51
305.5770601777416
  0
ARC
  5
3A9
330
1F
100
AcDbEntity
  8
SEPARATOR_BEARING
 48
0.5
100
AcDbCircle
 10
4.577791627564254
 20
9.972359747277067
 30
0.0
 40
0.7675000245599973
100
AcDbArc
 50
2.367194974909112
 51
5.458891981612772
  0
ARC
  5
3AA
330
1F
100
AcDbEntity
  8
SEPARATOR_BEARING
 48
0.5
100
AcDbCircle
 10
5.413339248498839
 20
9.915206724255256
 30
0.0
 40
0.1045000033439996
100
AcDbArc
 50
59.1247388122379
 51
125.5770601777104
  0
ARC
  5
3AB
330
1F
100
AcDbEntity
  8
SEPARATOR_BEARING
 48
0.5
100
AcDbCircle
 10
5.451805542096778
 20
9.791650095672267
 30
0.0
 40
0.00500000016
100
AcDbArc
 50
348.3182258277089
 51
111.5584910014289
  0
ARC
  5
3AC
330
1F
100
AcDbEntity
  8
SEPARATOR_BEARING
 48
0.5
100
AcDbCircle
 10
5.440769589433305
 20
9.744707955481114
 30
0.0
 40
0.00500000016
100
AcDbArc
 50
221.9818816693837
 51
345.2221468431147
  0
ARC
  5
3AD
330
1F
100
AcDbEntity
  8
SEPARATOR_BEARING
 48
0.5
100
AcDbCircle
 10
4.577791627564254
 20
9.972359747277067
 30
0.0
 40
0.8975000287199968
100
AcDbArc
 50
345.2221468431067
 51
348.3182258277011
  0
ARC
  5
3AE
330
1F
100
AcDbEntity
  8
SEPARATOR_BEARING
 48
0.5
100
AcDbCircle
 10
4.577791627564254
 20
9.972359747277067
 30
0.0
 40
0.7675000245599973
100
AcDbArc
 50
345.2243378320541
 51
348.3160348387551
  0
ARC
  5
3AF
330
1F
100
AcDbEntity
  8
SEPARATOR_BEARING
 48
0.5
100
AcDbCircle
 10
5.334285084428536
 20
9.815918263284146
 30
0.0
 40
0.00500000016
100
AcDbArc
 50
45.10616963594695
 51
168.316034838755
  0
ARC
  5
3B0
330
1F
100
AcDbEntity
  8
SEPARATOR_BEARING
 48
0.5
100
AcDbCircle
 10
5.324746473476089
 20
9.775345163143789
 30
0.0
 40
0.00500000016
100
AcDbArc
 50
165.2243378320542
 51
288.4342030348808
  0
ARC
  5
3B1
330
1F
100
AcDbEntity
  8
SEPARATOR_BEARING
 48
0.5
100
AcDbCircle
 10
5.41156967140043
 20
9.893489800486658
 30
0.0
 40
0.1045000033439996
100
AcDbArc
 50
225.1061696359533
 51
291.5584910014225
  0
ARC
  5
3B2
330
1F
100
AcDbEntity
  8
SEPARATOR_BEARING
 48
0.5
100
AcDbCircle
 10
5.359372062799754
 20
9.671463887971768
 30
0.0
 40
0.1045000033439996
100
AcDbArc
 50
41.98188166938339
 51
108.4342030348532
  0
ARC
  5
3B3
330
1F
100
AcDbEntity
  8
BEARING_WAVE_GEN
 48
0.5
100
AcDbCircle
 10
5.308055742005866
 20
10.3751877101525
 30
0.0
 40
0.0937500029999997
100
AcDbArc
 50
56.64064580885909
 51
182.7112853087034
  0
ARC
  5
3B4
330
1F
100
AcDbEntity
  8
SEPARATOR_BEARING
 48
0.5
100
AcDbCircle
 10
5.401733184477393
 20
10.31539999531092
 30
0.0
 40
0.00500000016
100
AcDbArc
 50
22.60394011342426
 51
145.8442052871419
  0
ARC
  5
3B5
330
1F
100
AcDbEntity
  8
SEPARATOR_BEARING
 48
0.5
100
AcDbCircle
 10
5.419058301613443
 20
10.27039780544045
 30
0.0
 40
0.00500000016
100
AcDbArc
 50
256.2675959551004
 51
19.50786112882837
  0
ARC
  5
3B6
330
1F
100
AcDbEntity
  8
SEPARATOR_BEARING
 48
0.5
100
AcDbCircle
 10
5.466240661046724
 20
10.05729864227603
 30
0.0
 40
0.00500000016
100
AcDbArc
 50
5.461082970565636
 51
128.7013481442874
  0
ARC
  5
3B7
330
1F
100
AcDbEntity
  8
SEPARATOR_BEARING
 48
0.5
100
AcDbCircle
 10
4.577791627564254
 20
9.972359747277067
 30
0.0
 40
0.7675000245599973
100
AcDbArc
 50
19.51005211776871
 51
22.60174912446668
  0
ARC
  5
3B8
330
1F
100
AcDbEntity
  8
SEPARATOR_BEARING
 48
0.5
100
AcDbCircle
 10
5.290962479988319
 20
10.26924966533612
 30
0.0
 40
0.00500000016
100
AcDbArc
 50
79.3918839216645
 51
202.6017491244665
  0
ARC
  5
3B9
330
1F
100
AcDbEntity
  8
SEPARATOR_BEARING
 48
0.5
100
AcDbCircle
 10
5.305936950893201
 20
10.23035330593037
 30
0.0
 40
0.00500000016
100
AcDbArc
 50
199.5100521177713
 51
322.7199173205986
  0
ARC
  5
3BA
330
1F
100
AcDbEntity
  8
BEARING_WAVE_GEN
 48
0.5
100
AcDbCircle
 10
5.394347782821112
 20
10.14204206759278
 30
0.0
 40
0.0937500029999997
100
AcDbArc
 50
39.49778866600263
 51
165.5684281658478
  0
ARC
  5
3BB
330
1F
100
AcDbEntity
  8
SEPARATOR_BEARING
 48
0.5
100
AcDbCircle
 10
5.311120399560484
 20
10.37687823517655
 30
0.0
 40
0.1045000033439996
100
AcDbArc
 50
259.3918839216649
 51
325.8442052871389
  0
ARC
  5
3BC
330
1F
100
AcDbEntity
  8
SEPARATOR_BEARING
 48
0.5
100
AcDbCircle
 10
4.577791627564254
 20
9.972359747277067
 30
0.0
 40
0.8975000287199968
100
AcDbArc
 50
19.50786112882021
 51
22.60394011341346
  0
ARC
  5
3BD
330
1F
100
AcDbEntity
  8
BEARING_WAVE_GEN
 48
0.5
100
AcDbCircle
 10
5.308055742005866
 20
10.3751877101525
 30
0.0
 40
0.0937500029999997
100
AcDbArc
 50
235.052689846573
 51
1.123329346420258
  0
ARC
  5
3BE
330
1F
100
AcDbEntity
  8
SEPARATOR_BEARING
 48
0.5
100
AcDbCircle
 10
5.393064361337561
 20
10.16402785744614
 30
0.0
 40
0.1045000033439996
100
AcDbArc
 50
76.26759595509366
 51
142.7199173205666
  0
ARC
  5
3BF
330
1F
100
AcDbEntity
  8
SEPARATOR_BEARING
 48
0.5
100
AcDbCircle
 10
5.300348914015064
 20
10.39581843792687
 30
0.0
 40
0.1045000033439996
100
AcDbArc
 50
93.41045309795536
 51
159.8627744634242
  0
ARC
  5
3C0
330
1F
100
AcDbEntity
  8
SEPARATOR_BEARING
 48
0.5
100
AcDbCircle
 10
5.159306742331157
 20
10.57505906384183
 30
0.0
 40
0.1045000033439996
100
AcDbArc
 50
276.5347410645201
 51
342.9870624299972
  0
ARC
  5
3C1
330
1F
100
AcDbEntity
  8
BEARING_WAVE_GEN
 48
0.5
100
AcDbCircle
 10
5.156876529911219
 20
10.57254032042933
 30
0.0
 40
0.0937500029999997
100
AcDbArc
 50
252.1955469894336
 51
18.26618648927644
  0
ARC
  5
3C2
330
1F
100
AcDbEntity
  8
SEPARATOR_BEARING
 48
0.5
100
AcDbCircle
 10
4.577791627564254
 20
9.972359747277067
 30
0.0
 40
0.8975000287199968
100
AcDbArc
 50
53.7935754145326
 51
56.8896543991311
  0
ARC
  5
3C3
330
1F
100
AcDbEntity
  8
SEPARATOR_BEARING
 48
0.5
100
AcDbCircle
 10
5.065322637215599
 20
10.71993570703496
 30
0.0
 40
0.00500000016
100
AcDbArc
 50
56.88965439913935
 51
180.1299195728583
  0
ARC
  5
3C4
330
1F
100
AcDbEntity
  8
SEPARATOR_BEARING
 48
0.5
100
AcDbCircle
 10
5.104987956973804
 20
10.69251273882588
 30
0.0
 40
0.00500000016
100
AcDbArc
 50
290.5533102408131
 51
53.79357541454086
  0
ARC
  5
3C5
330
1F
100
AcDbEntity
  8
SEPARATOR_BEARING
 48
0.5
100
AcDbCircle
 10
4.577791627564254
 20
9.972359747277067
 30
0.0
 40
0.7675000245599973
100
AcDbArc
 50
36.65290926062612
 51
39.74460626732419
  0
ARC
  5
3C6
330
1F
100
AcDbEntity
  8
SEPARATOR_BEARING
 48
0.5
100
AcDbCircle
 10
5.171768460441679
 20
10.4662704782774
 30
0.0
 40
0.00500000016
100
AcDbArc
 50
96.53474106452016
 51
219.7446062673244
  0
ARC
  5
3C7
330
1F
100
AcDbEntity
  8
SEPARATOR_BEARING
 48
0.5
100
AcDbCircle
 10
5.034080580594859
 20
10.5957028947766
 30
0.0
 40
0.00500000016
100
AcDbArc
 50
233.7957664034858
 51
357.0056316063118
  0
ARC
  5
3C8
330
1F
100
AcDbEntity
  8
SEPARATOR_BEARING
 48
0.5
100
AcDbCircle
 10
5.14343108090099
 20
10.58998285542549
 30
0.0
 40
0.1045000033439996
100
AcDbArc
 50
110.5533102408131
 51
177.0056316062834
  0
ARC
  5
3C9
330
1F
100
AcDbEntity
  8
BEARING_WAVE_GEN
 48
0.5
100
AcDbCircle
 10
5.156876529911219
 20
10.57254032042933
 30
0.0
 40
0.0937500029999997
100
AcDbArc
 50
73.78350295171634
 51
199.8541424515622
  0
ARC
  5
3CA
330
1F
100
AcDbEntity
  8
SEPARATOR_BEARING
 48
0.5
100
AcDbCircle
 10
5.197542560820007
 20
10.43351597776845
 30
0.0
 40
0.00500000016
100
AcDbArc
 50
216.6529092606293
 51
339.8627744634545
  0
ARC
  5
3CB
330
1F
100
AcDbEntity
  8
SEPARATOR_BEARING
 48
0.5
100
AcDbCircle
 10
5.264014884768386
 20
10.54302071690068
 30
0.0
 40
0.00500000016
100
AcDbArc
 50
39.74679725627856
 51
162.98706243
  0
ARC
  5
3CC
330
1F
100
AcDbEntity
  8
SEPARATOR_BEARING
 48
0.5
100
AcDbCircle
 10
5.293834923884769
 20
10.50512451598275
 30
0.0
 40
0.00500000016
100
AcDbArc
 50
273.4104530979553
 51
36.65071827168502
  0
ARC
  5
3CD
330
1F
100
AcDbEntity
  8
SEPARATOR_BEARING
 48
0.5
100
AcDbCircle
 10
4.577791627564254
 20
9.972359747277067
 30
0.0
 40
0.8975000287199968
100
AcDbArc
 50
36.65071827167894
 51
39.74679725627452
  0
CIRCLE
  5
3CE
330
1F
100
AcDbEntity
  8
LINE_HIDDEN
100
AcDbCircle
 10
5.600567629433676
 20
10.56285974727706
 30
0.0
 40
0.079
  0
CIRCLE
  5
3CF
330
1F
100
AcDbEntity
  8
SPLINE_STATIC
100
AcDbCircle
 10
5.600567629433676
 20
10.56285974727706
 30
0.0
 40
0.065
  0
LINE
  5
3D0
330
1F
100
AcDbEntity
  8
SPLINE_FLEX
100
AcDbLine
 10
6.68695724273958
 20
9.00625974727707
 30
0.0
 11
6.686957242739599
 21
9.578859747277064
 31
0.0
  0
LINE
  5
3D1
330
1F
100
AcDbEntity
  8
WEAR_WASHER
100
AcDbLine
 10
6.670130471086041
 20
9.047359747277067
 30
0.0
 11
6.670130471086041
 21
9.578859747277064
 31
0.0
  0
LINE
  5
3D2
330
1F
100
AcDbEntity
  8
WEAR_WASHER
100
AcDbLine
 10
6.638130471086041
 20
9.047359747277067
 30
0.0
 11
6.638130471086041
 21
9.578859747277064
 31
0.0
  0
LWPOLYLINE
  5
3D3
330
1F
100
AcDbEntity
  8
RETAINER_BEARING
100
AcDbPolyline
 90
        4
 70
     1
 43
0.0
 10
7.048264329353758
 20
9.577859747277067
 10
7.084164329353757
 20
9.577859747277067
 10
7.084164329353757
 20
9.066859747277067
 10
7.048264329353758
 20
9.066859747277067
  0
LINE
  5
3D4
330
1F
100
AcDbEntity
  8
WAVE_GENERATOR
100
AcDbLine
 10
6.717264329353759
 20
9.568859747277064
 30
0.0
 11
6.717264329353759
 21
9.272359724877063
 31
0.0
  0
LINE
  5
3D5
330
1F
100
AcDbEntity
  8
WAVE_GENERATOR
100
AcDbLine
 10
7.048264329353758
 20
9.272359724877063
 30
0.0
 11
7.048264329353758
 21
9.972359747277067
 31
0.0
  0
REGION
  5
3D6
330
1F
100
AcDbEntity
  8
SPLINE_STATIC
100
AcDbModelerGeometry
 70
     1
  1
koo ki n o          
  1
h J1410(1 nl ^ \VL kqoqm QK mk R01 R>& nj nlemnejk mooi 
  1
rn fqfffffffffffffffj:rooh n:rono 
  1
=0;& {rn {n {rn {rn |
  1
3*2/ {rn {rn {m {o |
  1
,7:33 {rn {rn {rn {l {rn {n |
  1
9><: {rn {rn {k {m {rn {j -:):-,:; ;0*=3: 0*+ |
  1
300/ {rn {rn {i {l |
  1
/3>1:r,*-9><: {rn iqhggnlokhnogiokmg gqhhioofhkhmhhoigg o o o rn rn o o -:):-,:@) V V V V |
  1
<0:;8: {rn {h {g {rn {f -:):-,:; {k {rn |
  1
<0:;8: {rn {no {i {rn {nn -:):-,:; {k {rn |
  1
<0:;8: {rn {i {nm {rn {nl 90-(>-; {k {rn |
  1
:;8: {rn {nk {nj {i {ni 90-(>-; |
  1
<0:;8: {rn {nh {h {rn {ng -:):-,:; {k {rn |
  1
:;8: {rn {nf {nk {h {mo 90-(>-; |
  1
<0:;8: {rn {g {mn {rn {mm 90-(>-; {k {rn |
  1
:;8: {rn {ml {nj {g {mk 90-(>-; |
  1
):-+:' {rn {f {mj |
  1
):-+:' {rn {f {mi |
  1
,+->687+r<*-): {rn iqihonlokhnogiokoh gqiofkofhkhmhhoiff o o n o V V |
  1
<0:;8: {rn {mh {no {rn {mg 90-(>-; {k {rn |
  1
:;8: {rn {mf {nf {no {lo 90-(>-; |
  1
):-+:' {rn {ng {ln |
  1
,+->687+r<*-): {rn iqigjnlokhnogioknl gqjfkkofhkhmhhoifl o roqhohnoihgnngijkhjh oqhohnoihgnngijkhjh o V V |
  1
<0:;8: {rn {nm {mh {rn {lm 90-(>-; {k {rn |
  1
:;8: {rn {ll {ml {nm {lk 90-(>-; |
  1
):-+:' {rn {nl {lj |
  1
,+->687+r<*-): {rn iqhoonlokhnogioknf gqfijnofhkhmhhoigh o roqhohnoihgnngijkhjh roqhohnoihgnngijkhjh o V V |
  1
/061+ {rn iqihonlokhnogiokoh gqiofkofhkhmhhoiff o |
  1
/061+ {rn iqihonlokhnogiokoh gqfljnofhkhmhhoihj o |
  1
<0:;8: {rn {mn {nh {rn {li 90-(>-; {k {rn |
  1
:;8: {rn {mf {lh {nh {lg 90-(>-; |
  1
):-+:' {rn {mg {lf |
  1
,+->687+r<*-): {rn iqgfnnlokhnogiokkk gqjfkkofhkhmhhoifl o rn o o V V |
  1
/061+ {rn iqigjnlokhnogioknl gqjfkkofhkhmhhoifl o |
  1
:;8: {rn {ko {ll {mn {kn 90-(>-; |
  1
):-+:' {rn {mm {km |
  1
,+->687+r<*-): {rn iqghinlokhnogioklg gqfijnofhkhmhhoigh o rn o o V V |
  1
/061+ {rn iqhoonlokhnogioknf gqfijnofhkhmhhoigh o |
  1
:;8: {rn {lh {ko {mh {kl 90-(>-; |
  1
):-+:' {rn {li {kk |
  1
,+->687+r<*-): {rn iqgfnnlokhnogiokkk gqjfkkofhkhmhhoifl o oqhohnoihgnngijkhjh oqhohnoihgnngijkhjh o V V |
  1
/061+ {rn iqgfnnlokhnogiokkk gqjfkkofhkhmhhoifl o |
  1
):-+:' {rn {lm {kj |
  1
,+->687+r<*-): {rn iqfoinlokhnogiokkf gqfljnofhkhmhhoihj o roqhohnoihgnngijkhjh oqhohnoihgnngijkhjh o V V |
  1
/061+ {rn iqghinlokhnogioklg gqfijnofhkhmhhoigh o |
  1
,+->687+r<*-): {rn iqfoinlokhnogiokkf gqiofkofhkhmhhoiff o o n o V V |
  1
/061+ {rn iqfoinlokhnogiokkf gqiofkofhkhmhhoiff o |
  1
/061+ {rn iqfoinlokhnogiokkf gqfljnofhkhmhhoihj o |
  0
REGION
  5
3D7
330
1F
100
AcDbEntity
  8
SPLINE_FLEX
100
AcDbModelerGeometry
 70
     1
  1
koo li n o          
  1
h J1410(1 nl ^ \VL kqoqm QK mk R01 R>& nj nlemnejk mooi 
  1
rn fqfffffffffffffffj:rooh n:rono 
  1
=0;& {rn {n {rn {rn |
  1
3*2/ {rn {rn {m {o |
  1
,7:33 {rn {rn {rn {l {rn {n |
  1
9><: {rn {rn {k {m {rn {j 90-(>-; ;0*=3: 0*+ |
  1
300/ {rn {rn {i {l |
  1
/3>1:r,*-9><: {rn iqfmmfjhmkmhlfjgi gqfgnijfhkhmhhohof o o o n n o o -:):-,:@) V V V V |
  1
<0:;8: {rn {h {g {rn {f 90-(>-; {k {rn |
  1
<0:;8: {rn {no {i {rn {nn 90-(>-; {k {rn |
  1
<0:;8: {rn {i {nm {rn {nl -:):-,:; {k {rn |
  1
:;8: {rn {nk {nj {i {ni 90-(>-; |
  1
<0:;8: {rn {nh {h {rn {ng 90-(>-; {k {rn |
  1
:;8: {rn {nj {nf {h {mo 90-(>-; |
  1
<0:;8: {rn {g {nh {rn {mn -:):-,:; {k {rn |
  1
:;8: {rn {nk {mm {g {ml 90-(>-; |
  1
):-+:' {rn {f {mk |
  1
):-+:' {rn {f {mj |
  1
,+->687+r<*-): {rn iqhonfjhmkmhlfjgmk gqfingjfhkhmhhoihk o n o o V V |
  1
<0:;8: {rn {nm {no {rn {mi 90-(>-; {k {rn |
  1
:;8: {rn {nf {mh {no {mg 90-(>-; |
  1
):-+:' {rn {nn {mf |
  1
,+->687+r<*-): {rn hqnklfjhmkmhlfjgfh gqfingjfhkhmhhoihk o oqhohnoihgnngijkhjh oqhohnoihgnngijkhjh o V V |
  1
:;8: {rn {mm {lo {nm {ln 90-(>-; |
  1
):-+:' {rn {mn {lm |
  1
,+->687+r<*-): {rn iqhonfjhmkmhlfjgmk gqfingjfhkhmhhoihk o roqhohnoihgnngijkhjh oqhohnoihgnngijkhjh o V V |
  1
/061+ {rn iqhonfjhmkmhlfjgmk gqfingjfhkhmhhoihk o |
  1
/061+ {rn hqnklfjhmkmhlfjgfh gqfingjfhkhmhhoihk o |
  1
:;8: {rn {mh {lo {nh {ll 90-(>-; |
  1
):-+:' {rn {ng {lk |
  1
,+->687+r<*-): {rn hqnjgfjhmkmhlfjfom gqfhigjfhkhmhhoihf o o n o V V |
  1
/061+ {rn hqnjgfjhmkmhlfjfom gqfhigjfhkhmhhoihf o |
  1
):-+:' {rn {mi {lj |
  1
,+->687+r<*-): {rn iqigifjhmkmhlfjgng gqfhigjfhkhmhhoihf o o n o V V |
  1
/061+ {rn iqigifjhmkmhlfjgng gqfhigjfhkhmhhoihf o |
  1
,+->687+r<*-): {rn hqnjgfjhmkmhlfjfom fqooimjfhkhmhhohoj o rn o o V V |
  1
/061+ {rn hqnjgfjhmkmhlfjfom fqooimjfhkhmhhohoj o |
  1
/061+ {rn iqigifjhmkmhlfjgng fqooimjfhkhmhhohoj o |
  0
LINE
  5
3D8
330
1F
100
AcDbEntity
  8
LINE_HIDDEN
100
AcDbLine
 10
6.906130471086042
 20
8.870359747277065
 30
0.0
 11
6.670130471086041
 21
8.870359747277065
 31
0.0
  0
LINE
  5
3D9
330
1F
100
AcDbEntity
  8
SPLINE_STATIC
100
AcDbLine
 10
6.906130471086042
 20
8.856359747277068
 30
0.0
 11
6.670130471086041
 21
8.856359747277068
 31
0.0
  0
LINE
  5
3DA
330
1F
100
AcDbEntity
  8
LINE_HIDDEN
100
AcDbLine
 10
6.906130471086042
 20
8.712359747277066
 30
0.0
 11
6.670130471086041
 21
8.712359747277066
 31
0.0
  0
LINE
  5
3DB
330
1F
100
AcDbEntity
  8
SPLINE_STATIC
100
AcDbLine
 10
6.906130471086042
 20
8.726359747277065
 30
0.0
 11
6.670130471086041
 21
8.726359747277065
 31
0.0
  0
LINE
  5
3DC
330
1F
100
AcDbEntity
  8
LINE_CENTER
100
AcDbLine
 10
6.956130471086042
 20
8.791359747277066
 30
0.0
 11
6.62013047108604
 21
8.791359747277066
 31
0.0
  0
LWPOLYLINE
  5
3DD
330
1F
100
AcDbEntity
  8
WEAR_WASHER
100
AcDbPolyline
 90
        4
 70
     1
 43
0.0
 10
6.638130471086041
 20
9.047359747277067
 10
6.670130471086041
 20
9.047359747277067
 10
6.670130471086041
 20
8.909859747277067
 10
6.638130471086041
 20
8.909859747277067
  0
LINE
  5
3DE
330
1F
100
AcDbEntity
  8
WAVE_GENERATOR
100
AcDbLine
 10
6.717264329353759
 20
9.272359724877063
 30
0.0
 11
7.048264329353758
 21
9.272359724877063
 31
0.0
  0
LINE
  5
3DF
330
1F
100
AcDbEntity
  8
RETAINER_BEARING
100
AcDbLine
 10
7.084164329353757
 20
10.36685974727706
 30
0.0
 11
7.084164329353757
 21
9.577859747277067
 31
0.0
  0
LINE
  5
3E0
330
1F
100
AcDbEntity
  8
WAVE_GENERATOR
100
AcDbLine
 10
7.048264329353758
 20
10.67235976967707
 30
0.0
 11
7.048264329353758
 21
9.972359747277067
 31
0.0
  0
LINE
  5
3E1
330
1F
100
AcDbEntity
  8
WAVE_GENERATOR
100
AcDbLine
 10
6.599264329353758
 20
10.36585974727706
 30
0.0
 11
6.599264329353758
 21
9.972359747277067
 31
0.0
  0
LINE
  5
3E2
330
1F
100
AcDbEntity
  8
WAVE_GENERATOR
100
AcDbLine
 10
6.599264329353758
 20
9.795209747277068
 30
0.0
 11
7.048264329353758
 21
9.795209747277068
 31
0.0
  0
LINE
  5
3E3
330
1F
100
AcDbEntity
  8
WAVE_GENERATOR
100
AcDbLine
 10
6.599264329353758
 20
9.578859747277066
 30
0.0
 11
6.707264329353757
 21
9.578859747277062
 31
0.0
  0
LINE
  5
3E4
330
1F
100
AcDbEntity
  8
WAVE_GENERATOR
100
AcDbLine
 10
6.599264329353758
 20
9.578859747277066
 30
0.0
 11
6.599264329353758
 21
9.972359747277067
 31
0.0
  0
ARC
  5
3E5
330
1F
100
AcDbEntity
  8
WAVE_GENERATOR
100
AcDbCircle
 10
6.707264329353757
 20
9.568859747277064
 30
0.0
 40
0.01
100
AcDbArc
 50
0.0
 51
90.00000000000005
  0
LINE
  5
3E6
330
1F
100
AcDbEntity
  8
WAVE_GENERATOR
100
AcDbLine
 10
6.599264329353758
 20
10.36585974727706
 30
0.0
 11
6.707264329353757
 21
10.36585974727707
 31
0.0
  0
LINE
  5
3E7
330
1F
100
AcDbEntity
  8
WAVE_GENERATOR
100
AcDbLine
 10
6.599264329353758
 20
10.20420974727706
 30
0.0
 11
7.048264329353758
 21
10.20420974727706
 31
0.0
  0
LINE
  5
3E8
330
1F
100
AcDbEntity
  8
WAVE_GENERATOR
100
AcDbLine
 10
6.599264329353758
 20
10.13937836899333
 30
0.0
 11
7.048264329353758
 21
10.13937836899333
 31
0.0
  0
LINE
  5
3E9
330
1F
100
AcDbEntity
  8
WAVE_GENERATOR
100
AcDbLine
 10
6.717264329353759
 20
10.37585974727706
 30
0.0
 11
6.717264329353759
 21
10.67235976967707
 31
0.0
  0
ARC
  5
3EA
330
1F
100
AcDbEntity
  8
WAVE_GENERATOR
100
AcDbCircle
 10
6.707264329353757
 20
10.37585974727706
 30
0.0
 40
0.01
100
AcDbArc
 50
270.0
 51
0.0
  0
LINE
  5
3EB
330
1F
100
AcDbEntity
  8
WAVE_GENERATOR
100
AcDbLine
 10
6.717264329353759
 20
10.67235976967707
 30
0.0
 11
7.048264329353758
 21
10.67235976967707
 31
0.0
  0
REGION
  5
3EC
330
1F
100
AcDbEntity
  8
SPLINE_STATIC
100
AcDbModelerGeometry
 70
     1
  1
koo ki n o          
  1
h J1410(1 nl ^ \VL kqoqm QK mk R01 R>& nj nlemnejk mooi 
  1
rn fqfffffffffffffffj:rooh n:rono 
  1
=0;& {rn {n {rn {rn |
  1
3*2/ {rn {rn {m {o |
  1
,7:33 {rn {rn {rn {l {rn {n |
  1
9><: {rn {rn {k {m {rn {j -:):-,:; ;0*=3: 0*+ |
  1
300/ {rn {rn {i {l |
  1
/3>1:r,*-9><: {rn iqhggnlokhnogiokmg nnqnighofhkhmhhoih o o o rn rn o o 90-(>-;@) V V V V |
  1
<0:;8: {rn {h {g {rn {f 90-(>-; {k {rn |
  1
<0:;8: {rn {no {i {rn {nn -:):-,:; {k {rn |
  1
<0:;8: {rn {i {nm {rn {nl 90-(>-; {k {rn |
  1
:;8: {rn {nk {nj {i {ni 90-(>-; |
  1
<0:;8: {rn {nh {h {rn {ng -:):-,:; {k {rn |
  1
:;8: {rn {nf {nj {h {mo 90-(>-; |
  1
<0:;8: {rn {g {mn {rn {mm 90-(>-; {k {rn |
  1
:;8: {rn {ml {nk {g {mk 90-(>-; |
  1
):-+:' {rn {f {mj |
  1
):-+:' {rn {f {mi |
  1
,+->687+r<*-): {rn iqihonlokhnogiokoh nnqlljlofhkhmhhoii o o rn o V V |
  1
<0:;8: {rn {mh {no {rn {mg -:):-,:; {k {rn |
  1
:;8: {rn {mf {nf {no {lo 90-(>-; |
  1
):-+:' {rn {nn {ln |
  1
,+->687+r<*-): {rn iqhoonlokhnogioknf noqfhfiofhkhmhhoih o roqhohnoihgnngijkhjh oqhohnoihgnngijkhjh o V V |
  1
<0:;8: {rn {nm {mh {rn {lm -:):-,:; {k {rn |
  1
:;8: {rn {ll {ml {nm {lk 90-(>-; |
  1
):-+:' {rn {mm {lj |
  1
,+->687+r<*-): {rn iqigjnlokhnogioknl nnqljolofhkhmhhoii o roqhohnoihgnngijkhjh roqhohnoihgnngijkhjh o V V |
  1
/061+ {rn iqihonlokhnogiokoh nnqlljlofhkhmhhoii o |
  1
/061+ {rn iqihonlokhnogiokoh nnqoofiofhkhmhhoig o |
  1
<0:;8: {rn {mn {nh {rn {li -:):-,:; {k {rn |
  1
:;8: {rn {lh {mf {nh {lg 90-(>-; |
  1
):-+:' {rn {ng {lf |
  1
,+->687+r<*-): {rn iqghinlokhnogioklg noqfhfiofhkhmhhoih o rn o o V V |
  1
/061+ {rn iqhoonlokhnogioknf noqfhfiofhkhmhhoih o |
  1
:;8: {rn {ll {ko {mn {kn 90-(>-; |
  1
):-+:' {rn {lm {km |
  1
,+->687+r<*-): {rn iqgfnnlokhnogiokkk nnqljolofhkhmhhoii o rn o o V V |
  1
/061+ {rn iqigjnlokhnogioknl nnqljolofhkhmhhoii o |
  1
:;8: {rn {ko {lh {mh {kl 90-(>-; |
  1
):-+:' {rn {mg {kk |
  1
,+->687+r<*-): {rn iqfoinlokhnogiokkf nnqoofiofhkhmhhoig o roqhohnoihgnngijkhjh roqhohnoihgnngijkhjh o V V |
  1
/061+ {rn iqghinlokhnogioklg noqfhfiofhkhmhhoih o |
  1
):-+:' {rn {li {kj |
  1
,+->687+r<*-): {rn iqgfnnlokhnogiokkk nnqljolofhkhmhhoii o oqhohnoihgnngijkhjh roqhohnoihgnngijkhjh o V V |
  1
/061+ {rn iqgfnnlokhnogiokkk nnqljolofhkhmhhoii o |
  1
,+->687+r<*-): {rn iqfoinlokhnogiokkf nnqlljlofhkhmhhoii o o rn o V V |
  1
/061+ {rn iqfoinlokhnogiokkf nnqoofiofhkhmhhoig o |
  1
/061+ {rn iqfoinlokhnogiokkf nnqlljlofhkhmhhoii o |
  0
LINE
  5
3ED
330
1F
100
AcDbEntity
  8
LINE_CENTER
100
AcDbLine
 10
6.956130471086042
 20
11.15335974727706
 30
0.0
 11
6.62013047108604
 21
11.15335974727706
 31
0.0
  0
LINE
  5
3EE
330
1F
100
AcDbEntity
  8
SPLINE_STATIC
100
AcDbLine
 10
6.906130471086042
 20
11.21835974727707
 30
0.0
 11
6.670130471086041
 21
11.21835974727707
 31
0.0
  0
LINE
  5
3EF
330
1F
100
AcDbEntity
  8
LINE_HIDDEN
100
AcDbLine
 10
6.906130471086042
 20
11.23235974727706
 30
0.0
 11
6.670130471086041
 21
11.23235974727706
 31
0.0
  0
LINE
  5
3F0
330
1F
100
AcDbEntity
  8
SPLINE_STATIC
100
AcDbLine
 10
6.906130471086042
 20
11.08835974727706
 30
0.0
 11
6.670130471086041
 21
11.08835974727706
 31
0.0
  0
LINE
  5
3F1
330
1F
100
AcDbEntity
  8
LINE_HIDDEN
100
AcDbLine
 10
6.906130471086042
 20
11.07435974727706
 30
0.0
 11
6.670130471086041
 21
11.07435974727706
 31
0.0
  0
REGION
  5
3F2
330
1F
100
AcDbEntity
  8
SPLINE_FLEX
100
AcDbModelerGeometry
 70
     1
  1
koo li n o          
  1
h J1410(1 nl ^ \VL kqoqm QK mk R01 R>& nj nlemnejk mooi 
  1
rn fqfffffffffffffffj:rooh n:rono 
  1
=0;& {rn {n {rn {rn |
  1
3*2/ {rn {rn {m {o |
  1
,7:33 {rn {rn {rn {l {rn {n |
  1
9><: {rn {rn {k {m {rn {j 90-(>-; ;0*=3: 0*+ |
  1
300/ {rn {rn {i {l |
  1
/3>1:r,*-9><: {rn iqfmmfjhmkmhlfjgi noqfilojfhkhmhhoij o o o n n o o 90-(>-;@) V V V V |
  1
<0:;8: {rn {h {g {rn {f -:):-,:; {k {rn |
  1
<0:;8: {rn {no {i {rn {nn 90-(>-; {k {rn |
  1
<0:;8: {rn {i {nm {rn {nl -:):-,:; {k {rn |
  1
:;8: {rn {nk {nj {i {ni 90-(>-; |
  1
<0:;8: {rn {nh {h {rn {ng 90-(>-; {k {rn |
  1
:;8: {rn {nk {nf {h {mo 90-(>-; |
  1
<0:;8: {rn {g {nh {rn {mn -:):-,:; {k {rn |
  1
:;8: {rn {nj {mm {g {ml 90-(>-; |
  1
):-+:' {rn {f {mk |
  1
):-+:' {rn {f {mj |
  1
,+->687+r<*-): {rn iqhonfjhmkmhlfjgmk noqfgmgjfhkhmhhoig o n o o V V |
  1
<0:;8: {rn {nm {no {rn {mi -:):-,:; {k {rn |
  1
:;8: {rn {nf {mh {no {mg 90-(>-; |
  1
):-+:' {rn {ng {mf |
  1
,+->687+r<*-): {rn iqhonfjhmkmhlfjgmk noqfgmgjfhkhmhhoig o roqhohnoihgnngijkhjh roqhohnoihgnngijkhjh o V V |
  1
:;8: {rn {mm {lo {nm {ln 90-(>-; |
  1
):-+:' {rn {nl {lm |
  1
,+->687+r<*-): {rn hqnklfjhmkmhlfjgfh noqfgmgjfhkhmhhoig o oqhohnoihgnngijkhjh roqhohnoihgnngijkhjh o V V |
  1
/061+ {rn iqhonfjhmkmhlfjgmk noqfgmgjfhkhmhhoig o |
  1
/061+ {rn hqnklfjhmkmhlfjgfh noqfgmgjfhkhmhhoig o |
  1
:;8: {rn {lo {mh {nh {ll 90-(>-; |
  1
):-+:' {rn {mi {lk |
  1
,+->687+r<*-): {rn iqigifjhmkmhlfjgng noqfihgjfhkhmhhoig o o rn o V V |
  1
/061+ {rn iqigifjhmkmhlfjgng noqfihgjfhkhmhhoig o |
  1
):-+:' {rn {mn {lj |
  1
,+->687+r<*-): {rn hqnjgfjhmkmhlfjfom noqfihgjfhkhmhhoig o o rn o V V |
  1
/061+ {rn hqnjgfjhmkmhlfjfom noqfihgjfhkhmhhoig o |
  1
,+->687+r<*-): {rn hqnjgfjhmkmhlfjfom noqflgkjfhkhmhhoij o rn o o V V |
  1
/061+ {rn iqigifjhmkmhlfjgng noqflgkjfhkhmhhoij o |
  1
/061+ {rn hqnjgfjhmkmhlfjfom noqflgkjfhkhmhhoij o |
  0
LWPOLYLINE
  5
3F3
330
1F
100
AcDbEntity
  8
WEAR_WASHER
100
AcDbPolyline
 90
        4
 70
     1
 43
0.0
 10
6.638130471086041
 20
10.89735974727706
 10
6.670130471086041
 20
10.89735974727706
 10
6.670130471086041
 20
11.03485974727706
 10
6.638130471086041
 20
11.03485974727706
  0
LINE
  5
3F4
330
1F
100
AcDbEntity
  8
SPLINE_FLEX
100
AcDbLine
 10
7.696610786046676
 20
10.93845974727706
 30
0.0
 11
7.696610786046658
 21
10.36585974727706
 31
0.0
  0
LINE
  5
3F5
330
1F
100
AcDbEntity
  8
WEAR_WASHER
100
AcDbLine
 10
7.713437557700214
 20
10.89735974727706
 30
0.0
 11
7.713437557700214
 21
10.36585974727706
 31
0.0
  0
LINE
  5
3F6
330
1F
100
AcDbEntity
  8
WEAR_WASHER
100
AcDbLine
 10
7.745437557700214
 20
10.89735974727706
 30
0.0
 11
7.745437557700214
 21
10.36585974727706
 31
0.0
  0
LINE
  5
3F7
330
1F
100
AcDbEntity
  8
SPLINE_FLEX
100
AcDbLine
 10
7.224610786046667
 20
9.00625974727707
 30
0.0
 11
7.224610786046667
 21
10.93845974727706
 31
0.0
  0
LINE
  5
3F8
330
1F
100
AcDbEntity
  8
SPACERS_PANCAKE
100
AcDbLine
 10
7.207784014393128
 20
10.89735974727706
 30
0.0
 11
7.207784014393128
 21
9.047359747277067
 31
0.0
  0
LINE
  5
3F9
330
1F
100
AcDbEntity
  8
SPACERS_PANCAKE
100
AcDbLine
 10
7.175784014393129
 20
9.047359747277067
 30
0.0
 11
7.175784014393129
 21
10.89735974727706
 31
0.0
  0
LWPOLYLINE
  5
3FA
330
1F
100
AcDbEntity
  8
RETAINER_BEARING
100
AcDbPolyline
 90
        4
 70
     1
 43
0.0
 10
7.335303699432499
 20
10.36685974727706
 10
7.299403699432499
 20
10.36685974727706
 10
7.299403699432499
 20
10.87785974727706
 10
7.335303699432499
 20
10.87785974727706
  0
INSERT
  5
3FB
330
1F
100
AcDbEntity
  8
DIMENSIONS
100
AcDbBlockReference
  2
BEARING WG 20 1423134-10
 10
7.666303699432496
 20
9.972359747277067
 30
0.0
 41
0.0393700799999994
 42
0.0393700800000003
 43
0.03937008
  0
LINE
  5
3FC
330
1F
100
AcDbEntity
  8
SPLINE_FLEX
100
AcDbLine
 10
7.696610786046676
 20
9.00625974727707
 30
0.0
 11
7.696610786046658
 21
9.578859747277064
 31
0.0
  0
LINE
  5
3FD
330
1F
100
AcDbEntity
  8
WEAR_WASHER
100
AcDbLine
 10
7.713437557700214
 20
9.047359747277067
 30
0.0
 11
7.713437557700214
 21
9.578859747277064
 31
0.0
  0
LINE
  5
3FE
330
1F
100
AcDbEntity
  8
WEAR_WASHER
100
AcDbLine
 10
7.745437557700214
 20
9.047359747277067
 30
0.0
 11
7.745437557700214
 21
9.578859747277064
 31
0.0
  0
LINE
  5
3FF
330
1F
100
AcDbEntity
  8
WAVE_GENERATOR
100
AcDbLine
 10
7.666303699432496
 20
9.568859747277064
 30
0.0
 11
7.666303699432496
 21
9.272359724877063
 31
0.0
  0
LWPOLYLINE
  5
400
330
1F
100
AcDbEntity
  8
RETAINER_BEARING
100
AcDbPolyline
 90
        4
 70
     1
 43
0.0
 10
7.335303699432499
 20
9.577859747277067
 10
7.299403699432499
 20
9.577859747277067
 10
7.299403699432499
 20
9.066859747277067
 10
7.335303699432499
 20
9.066859747277067
  0
LINE
  5
401
330
1F
100
AcDbEntity
  8
WAVE_GENERATOR
100
AcDbLine
 10
7.335303699432499
 20
9.272359724877063
 30
0.0
 11
7.335303699432499
 21
9.972359747277067
 31
0.0
  0
REGION
  5
402
330
1F
100
AcDbEntity
  8
SPLINE_STATIC
100
AcDbModelerGeometry
 70
     1
  1
koo ki n o          
  1
h J1410(1 nl ^ \VL kqoqm QK mk R01 R>& nj nlemnejk mooi 
  1
rn fqfffffffffffffffj:rooh n:rono 
  1
=0;& {rn {n {rn {rn |
  1
3*2/ {rn {rn {m {o |
  1
,7:33 {rn {rn {rn {l {rn {n |
  1
9><: {rn {rn {k {m {rn {j -:):-,:; ;0*=3: 0*+ |
  1
300/ {rn {rn {i {l |
  1
/3>1:r,*-9><: {rn hqjfjklhjjhhoomnim gqhhioofhkhmhhoigg o o o rn rn o o -:):-,:@) V V V V |
  1
<0:;8: {rn {h {g {rn {f -:):-,:; {k {rn |
  1
<0:;8: {rn {no {i {rn {nn 90-(>-; {k {rn |
  1
<0:;8: {rn {i {nm {rn {nl 90-(>-; {k {rn |
  1
:;8: {rn {nk {nj {i {ni 90-(>-; |
  1
<0:;8: {rn {nh {h {rn {ng 90-(>-; {k {rn |
  1
:;8: {rn {nk {nf {h {mo 90-(>-; |
  1
<0:;8: {rn {g {mn {rn {mm -:):-,:; {k {rn |
  1
:;8: {rn {ml {nj {g {mk 90-(>-; |
  1
):-+:' {rn {f {mj |
  1
):-+:' {rn {f {mi |
  1
,+->687+r<*-): {rn hqkhhklhjjhhoomnkn gqiofkofhkhmhhoiff o o n o V V |
  1
<0:;8: {rn {mh {no {rn {mg 90-(>-; {k {rn |
  1
:;8: {rn {nf {mf {no {lo 90-(>-; |
  1
):-+:' {rn {ng {ln |
  1
,+->687+r<*-): {rn hqkhhklhjjhhoomnkn gqiofkofhkhmhhoiff o oqhohnoihgnngijkhjh roqhohnoihgnngijkhjh o V V |
  1
<0:;8: {rn {nm {mh {rn {lm 90-(>-; {k {rn |
  1
:;8: {rn {ml {ll {nm {lk 90-(>-; |
  1
):-+:' {rn {nl {lj |
  1
,+->687+r<*-): {rn hqjohklhjjhhoomnjl gqfijnofhkhmhhoigh o roqhohnoihgnngijkhjh roqhohnoihgnngijkhjh o V V |
  1
/061+ {rn hqkhhklhjjhhoomnkn gqiofkofhkhmhhoiff o |
  1
/061+ {rn hqkhhklhjjhhoomnkn gqfljnofhkhmhhoihj o |
  1
<0:;8: {rn {mn {nh {rn {li 90-(>-; {k {rn |
  1
:;8: {rn {mf {lh {nh {lg 90-(>-; |
  1
):-+:' {rn {mg {lf |
  1
,+->687+r<*-): {rn hqkfmklhjjhhoomnkh gqjfkkofhkhmhhoifl o n o o V V |
  1
/061+ {rn hqkfmklhjjhhoomnkh gqjfkkofhkhmhhoifl o |
  1
:;8: {rn {ko {ll {mn {kn 90-(>-; |
  1
):-+:' {rn {mm {km |
  1
,+->687+r<*-): {rn hqjohklhjjhhoomnjl gqfijnofhkhmhhoigh o n o o V V |
  1
/061+ {rn hqjohklhjjhhoomnjl gqfijnofhkhmhhoigh o |
  1
:;8: {rn {lh {ko {mh {kl 90-(>-; |
  1
):-+:' {rn {li {kk |
  1
,+->687+r<*-): {rn hqifgklhjjhhoomnhg gqjfkkofhkhmhhoifl o oqhohnoihgnngijkhjh oqhohnoihgnngijkhjh o V V |
  1
/061+ {rn hqifgklhjjhhoomnhg gqjfkkofhkhmhhoifl o |
  1
):-+:' {rn {lm {kj |
  1
,+->687+r<*-): {rn hqhnlklhjjhhoomngl gqfljnofhkhmhhoihj o roqhohnoihgnngijkhjh oqhohnoihgnngijkhjh o V V |
  1
/061+ {rn hqiglklhjjhhoomnhm gqfijnofhkhmhhoigh o |
  1
,+->687+r<*-): {rn hqhnlklhjjhhoomngl gqiofkofhkhmhhoiff o o n o V V |
  1
/061+ {rn hqhnlklhjjhhoomngl gqiofkofhkhmhhoiff o |
  1
/061+ {rn hqhnlklhjjhhoomngl gqfljnofhkhmhhoihj o |
  0
REGION
  5
403
330
1F
100
AcDbEntity
  8
SPLINE_FLEX
100
AcDbModelerGeometry
 70
     1
  1
koo li n o          
  1
h J1410(1 nl ^ \VL kqoqm QK mk R01 R>& nj nlemnejk mooi 
  1
rn fqfffffffffffffffj:rooh n:rono 
  1
=0;& {rn {n {rn {rn |
  1
3*2/ {rn {rn {m {o |
  1
,7:33 {rn {rn {rn {l {rn {n |
  1
9><: {rn {rn {k {m {rn {j 90-(>-; ;0*=3: 0*+ |
  1
300/ {rn {rn {i {l |
  1
/3>1:r,*-9><: {rn hqkioinohgiokiihl gqfgnijfhkhmhhohof o o o n rn o o 90-(>-;@) V V V V |
  1
<0:;8: {rn {h {g {rn {f -:):-,:; {k {rn |
  1
<0:;8: {rn {no {i {rn {nn 90-(>-; {k {rn |
  1
<0:;8: {rn {i {nm {rn {nl -:):-,:; {k {rn |
  1
:;8: {rn {nk {nj {i {ni 90-(>-; |
  1
<0:;8: {rn {nh {h {rn {ng 90-(>-; {k {rn |
  1
:;8: {rn {nk {nf {h {mo 90-(>-; |
  1
<0:;8: {rn {g {nh {rn {mn -:):-,:; {k {rn |
  1
:;8: {rn {nj {mm {g {ml 90-(>-; |
  1
):-+:' {rn {f {mk |
  1
):-+:' {rn {f {mj |
  1
,+->687+r<*-): {rn hqigninohgiokiihih gqfingjfhkhmhhoihk o rn o o V V |
  1
<0:;8: {rn {nm {no {rn {mi -:):-,:; {k {rn |
  1
:;8: {rn {nf {mh {no {mg 90-(>-; |
  1
):-+:' {rn {ng {mf |
  1
,+->687+r<*-): {rn hqigninohgiokiihih gqfingjfhkhmhhoihk o oqhohnoihgnngijkhjh oqhohnoihgnngijkhjh o V V |
  1
:;8: {rn {mm {lo {nm {ln 90-(>-; |
  1
):-+:' {rn {nl {lm |
  1
,+->687+r<*-): {rn hqmlfinohgiokiiifk gqfingjfhkhmhhoihk o roqhohnoihgnngijkhjh oqhohnoihgnngijkhjh o V V |
  1
/061+ {rn hqigninohgiokiihih gqfingjfhkhmhhoihk o |
  1
/061+ {rn hqmlfinohgiokiiifk gqfingjfhkhmhhoihk o |
  1
:;8: {rn {lo {mh {nh {ll 90-(>-; |
  1
):-+:' {rn {mi {lk |
  1
,+->687+r<*-): {rn hqifiinohgiokiihhl gqfhigjfhkhmhhoihf o o n o V V |
  1
/061+ {rn hqifiinohgiokiihhl gqfhigjfhkhmhhoihf o |
  1
):-+:' {rn {mn {lj |
  1
,+->687+r<*-): {rn hqmmkinohgiokiiigg gqfhigjfhkhmhhoihf o o n o V V |
  1
/061+ {rn hqmmkinohgiokiiigg gqfhigjfhkhmhhoihf o |
  1
,+->687+r<*-): {rn hqmmkinohgiokiiigg fqooimjfhkhmhhohoj o n o o V V |
  1
/061+ {rn hqifiinohgiokiihhl fqooimjfhkhmhhohoj o |
  1
/061+ {rn hqmmkinohgiokiiigg fqooimjfhkhmhhohoj o |
  0
LINE
  5
404
330
1F
100
AcDbEntity
  8
WAVE_GENERATOR
100
AcDbLine
 10
7.666303699432496
 20
9.272359724877063
 30
0.0
 11
7.335303699432499
 21
9.272359724877063
 31
0.0
  0
LINE
  5
405
330
1F
100
AcDbEntity
  8
LINE_CENTER
100
AcDbLine
 10
7.427437557700213
 20
8.791359747277066
 30
0.0
 11
7.763437557700216
 21
8.791359747277066
 31
0.0
  0
LINE
  5
406
330
1F
100
AcDbEntity
  8
SPLINE_STATIC
100
AcDbLine
 10
7.477437557700214
 20
8.726359747277065
 30
0.0
 11
7.713437557700214
 21
8.726359747277065
 31
0.0
  0
LINE
  5
407
330
1F
100
AcDbEntity
  8
LINE_HIDDEN
100
AcDbLine
 10
7.477437557700214
 20
8.712359747277066
 30
0.0
 11
7.713437557700214
 21
8.712359747277066
 31
0.0
  0
LINE
  5
408
330
1F
100
AcDbEntity
  8
SPLINE_STATIC
100
AcDbLine
 10
7.477437557700214
 20
8.856359747277068
 30
0.0
 11
7.713437557700214
 21
8.856359747277068
 31
0.0
  0
LINE
  5
409
330
1F
100
AcDbEntity
  8
LINE_HIDDEN
100
AcDbLine
 10
7.477437557700214
 20
8.870359747277065
 30
0.0
 11
7.713437557700214
 21
8.870359747277065
 31
0.0
  0
LWPOLYLINE
  5
40A
330
1F
100
AcDbEntity
  8
SPACERS_PANCAKE
100
AcDbPolyline
 90
        4
 70
     1
 43
0.0
 10
7.175784014393129
 20
9.047359747277067
 10
7.207784014393128
 20
9.047359747277067
 10
7.207784014393128
 20
8.967359747277066
 10
7.175784014393129
 20
8.967359747277066
  0
LWPOLYLINE
  5
40B
330
1F
100
AcDbEntity
  8
WEAR_WASHER
100
AcDbPolyline
 90
        4
 70
     1
 43
0.0
 10
7.745437557700214
 20
9.047359747277067
 10
7.713437557700214
 20
9.047359747277067
 10
7.713437557700214
 20
8.909859747277067
 10
7.745437557700214
 20
8.909859747277067
  0
LINE
  5
40C
330
1F
100
AcDbEntity
  8
RETAINER_BEARING
100
AcDbLine
 10
7.299403699432499
 20
10.36685974727706
 30
0.0
 11
7.299403699432499
 21
9.577859747277067
 31
0.0
  0
LINE
  5
40D
330
1F
100
AcDbEntity
  8
WAVE_GENERATOR
100
AcDbLine
 10
7.335303699432499
 20
10.67235976967707
 30
0.0
 11
7.335303699432499
 21
9.972359747277067
 31
0.0
  0
LINE
  5
40E
330
1F
100
AcDbEntity
  8
WAVE_GENERATOR
100
AcDbLine
 10
7.784303699432497
 20
10.36585974727706
 30
0.0
 11
7.784303699432497
 21
9.972359747277067
 31
0.0
  0
LINE
  5
40F
330
1F
100
AcDbEntity
  8
WAVE_GENERATOR
100
AcDbLine
 10
7.784303699432497
 20
9.657409747277066
 30
0.0
 11
7.335303699432499
 21
9.657409747277066
 31
0.0
  0
LINE
  5
410
330
1F
100
AcDbEntity
  8
WAVE_GENERATOR
100
AcDbLine
 10
7.784303699432497
 20
9.578859747277066
 30
0.0
 11
7.784303699432497
 21
9.972359747277067
 31
0.0
  0
LINE
  5
411
330
1F
100
AcDbEntity
  8
WAVE_GENERATOR
100
AcDbLine
 10
7.784303699432497
 20
9.578859747277066
 30
0.0
 11
7.676303699432496
 21
9.578859747277062
 31
0.0
  0
ARC
  5
412
330
1F
100
AcDbEntity
  8
WAVE_GENERATOR
100
AcDbCircle
 10
7.676303699432496
 20
9.568859747277064
 30
0.0
 40
0.01
100
AcDbArc
 50
89.99999999999998
 51
180.0
  0
LINE
  5
413
330
1F
100
AcDbEntity
  8
WAVE_GENERATOR
100
AcDbLine
 10
7.784303699432497
 20
10.28172458044334
 30
0.0
 11
7.335303699432499
 21
10.28172458044334
 31
0.0
  0
LINE
  5
414
330
1F
100
AcDbEntity
  8
WAVE_GENERATOR
100
AcDbLine
 10
7.784303699432497
 20
10.34240974727706
 30
0.0
 11
7.335303699432499
 21
10.34240974727706
 31
0.0
  0
LINE
  5
415
330
1F
100
AcDbEntity
  8
WAVE_GENERATOR
100
AcDbLine
 10
7.666303699432496
 20
10.67235976967707
 30
0.0
 11
7.335303699432499
 21
10.67235976967707
 31
0.0
  0
LINE
  5
416
330
1F
100
AcDbEntity
  8
WAVE_GENERATOR
100
AcDbLine
 10
7.666303699432496
 20
10.37585974727706
 30
0.0
 11
7.666303699432496
 21
10.67235976967707
 31
0.0
  0
ARC
  5
417
330
1F
100
AcDbEntity
  8
WAVE_GENERATOR
100
AcDbCircle
 10
7.676303699432496
 20
10.37585974727706
 30
0.0
 40
0.01
100
AcDbArc
 50
180.0
 51
270.0
  0
LINE
  5
418
330
1F
100
AcDbEntity
  8
WAVE_GENERATOR
100
AcDbLine
 10
7.784303699432497
 20
10.36585974727706
 30
0.0
 11
7.676303699432496
 21
10.36585974727707
 31
0.0
  0
ARC
  5
419
330
1F
100
AcDbEntity
  8
SEPARATOR_BEARING
 48
0.5
100
AcDbCircle
 10
9.464986915910053
 20
9.28346798512962
 30
0.0
 40
0.1045000033439984
100
AcDbArc
 50
105.8515112508608
 51
172.3038326163321
  0
ARC
  5
41A
330
1F
100
AcDbEntity
  8
SEPARATOR_BEARING
 48
0.5
100
AcDbCircle
 10
9.29678757782808
 20
9.437510443044617
 30
0.0
 40
0.1045000033439984
100
AcDbArc
 50
282.7272232842878
 51
349.1795446497636
  0
CIRCLE
  5
41B
330
1F
100
AcDbEntity
  8
LINE_HIDDEN
100
AcDbCircle
 10
8.918482301943999
 20
9.381859747277063
 30
0.0
 40
0.079
  0
CIRCLE
  5
41C
330
1F
100
AcDbEntity
  8
SPLINE_STATIC
100
AcDbCircle
 10
8.918482301943999
 20
9.381859747277063
 30
0.0
 40
0.065
  0
ARC
  5
41D
330
1F
100
AcDbEntity
  8
SEPARATOR_BEARING
 48
0.5
100
AcDbCircle
 10
9.320911489769612
 20
9.330700857145163
 30
0.0
 40
0.0050000001599999
100
AcDbArc
 50
102.7272232842826
 51
225.967488458005
  0
ARC
  5
41E
330
1F
100
AcDbEntity
  8
BEARING_WAVE_GEN
 48
0.5
100
AcDbCircle
 10
9.299480888324746
 20
9.439745634166788
 30
0.0
 40
0.0937500029999986
100
AcDbArc
 50
247.4480992250133
 51
13.51873872485372
  0
ARC
  5
41F
330
1F
100
AcDbEntity
  8
SEPARATOR_BEARING
 48
0.5
100
AcDbCircle
 10
9.94125830381342
 20
9.972359747277067
 30
0.0
 40
0.8975000287199867
100
AcDbArc
 50
225.9674884580123
 51
229.0635674426064
  0
ARC
  5
420
330
1F
100
AcDbEntity
  8
SEPARATOR_BEARING
 48
0.5
100
AcDbCircle
 10
9.356473270909798
 20
9.298132214265027
 30
0.0
 40
0.0050000001599999
100
AcDbArc
 50
229.0635674425991
 51
352.3038326163296
  0
ARC
  5
421
330
1F
100
AcDbEntity
  8
SEPARATOR_BEARING
 48
0.5
100
AcDbCircle
 10
9.172261791779334
 20
10.04584888029535
 30
0.0
 40
0.0050000001599999
100
AcDbArc
 50
354.5411080183868
 51
117.7509732211905
  0
ARC
  5
422
330
1F
100
AcDbEntity
  8
SEPARATOR_BEARING
 48
0.5
100
AcDbCircle
 10
9.94125830381342
 20
9.972359747277067
 30
0.0
 40
0.8975000287199867
100
AcDbArc
 50
174.5389170294421
 51
177.6349960140359
  0
ARC
  5
423
330
1F
100
AcDbEntity
  8
SEPARATOR_BEARING
 48
0.5
100
AcDbCircle
 10
9.121275354140049
 20
10.14275416366126
 30
0.0
 40
0.1045000033439984
100
AcDbArc
 50
231.2986518557194
 51
297.7509732211906
  0
ARC
  5
424
330
1F
100
AcDbEntity
  8
BEARING_WAVE_GEN
 48
0.5
100
AcDbCircle
 10
9.124702148556576
 20
10.14204206759279
 30
0.0
 40
0.0937500029999986
100
AcDbArc
 50
196.019527796438
 51
322.0901672962798
  0
ARC
  5
425
330
1F
100
AcDbEntity
  8
BEARING_WAVE_GEN
 48
0.5
100
AcDbCircle
 10
9.171002492401216
 20
9.65257539884633
 30
0.0
 40
0.0937500029999986
100
AcDbArc
 50
48.71728611986945
 51
174.7879256197115
  0
ARC
  5
426
330
1F
100
AcDbEntity
  8
SEPARATOR_BEARING
 48
0.5
100
AcDbCircle
 10
9.283091905856942
 20
9.454456969247265
 30
0.0
 40
0.1045000033439984
100
AcDbArc
 50
88.70865410800155
 51
155.1609754734713
  0
ARC
  5
427
330
1F
100
AcDbEntity
  8
SEPARATOR_BEARING
 48
0.5
100
AcDbCircle
 10
9.167770003984015
 20
9.651233378199442
 30
0.0
 40
0.1045000033439984
100
AcDbArc
 50
265.5843661414339
 51
332.0366875069046
  0
ARC
  5
428
330
1F
100
AcDbEntity
  8
BEARING_WAVE_GEN
 48
0.5
100
AcDbCircle
 10
9.171002492401216
 20
9.65257539884633
 30
0.0
 40
0.0937500029999986
100
AcDbArc
 50
230.3052420821559
 51
356.3758815819961
  0
ARC
  5
429
330
1F
100
AcDbEntity
  8
BEARING_WAVE_GEN
 48
0.5
100
AcDbCircle
 10
9.299480888324746
 20
9.439745634166788
 30
0.0
 40
0.0937500029999986
100
AcDbArc
 50
65.8601432627231
 51
191.9307827625688
  0
ARC
  5
42A
330
1F
100
AcDbEntity
  8
SEPARATOR_BEARING
 48
0.5
100
AcDbCircle
 10
9.94125830381342
 20
9.972359747277067
 30
0.0
 40
0.8975000287199867
100
AcDbArc
 50
208.8246313151553
 51
211.9207102997504
  0
ARC
  5
42B
330
1F
100
AcDbEntity
  8
SEPARATOR_BEARING
 48
0.5
100
AcDbCircle
 10
9.183721575054375
 20
9.500454666184877
 30
0.0
 40
0.0050000001599999
100
AcDbArc
 50
211.9207102997432
 51
335.1609754734711
  0
ARC
  5
42C
330
1F
100
AcDbEntity
  8
SEPARATOR_BEARING
 48
0.5
100
AcDbCircle
 10
9.159339480083975
 20
9.542058394644843
 30
0.0
 40
0.0050000001599999
100
AcDbArc
 50
85.58436614142888
 51
208.8246313151507
  0
ARC
  5
42D
330
1F
100
AcDbEntity
  8
SEPARATOR_BEARING
 48
0.5
100
AcDbCircle
 10
9.94125830381342
 20
9.972359747277067
 30
0.0
 40
0.7675000245599887
100
AcDbArc
 50
225.9696794469622
 51
229.0613764536657
  0
ARC
  5
42E
330
1F
100
AcDbEntity
  8
SEPARATOR_BEARING
 48
0.5
100
AcDbCircle
 10
9.43507751443118
 20
9.388804011590435
 30
0.0
 40
0.0050000001599999
100
AcDbArc
 50
285.8515112508283
 51
49.06137645365872
  0
ARC
  5
42F
330
1F
100
AcDbEntity
  8
SEPARATOR_BEARING
 48
0.5
100
AcDbCircle
 10
9.404340703082262
 20
9.416953789245022
 30
0.0
 40
0.0050000001599999
100
AcDbArc
 50
45.96967944696224
 51
169.1795446497661
  0
ARC
  5
430
330
1F
100
AcDbEntity
  8
SEPARATOR_BEARING
 48
0.5
100
AcDbCircle
 10
9.94125830381342
 20
9.972359747277067
 30
0.0
 40
0.7675000245599887
100
AcDbArc
 50
208.8268223041041
 51
211.9185193108051
  0
ARC
  5
431
330
1F
100
AcDbEntity
  8
SEPARATOR_BEARING
 48
0.5
100
AcDbCircle
 10
9.264485665578199
 20
9.599888158657854
 30
0.0
 40
0.0050000001599999
100
AcDbArc
 50
28.82682230410436
 51
152.0366875069045
  0
ARC
  5
432
330
1F
100
AcDbEntity
  8
SEPARATOR_BEARING
 48
0.5
100
AcDbCircle
 10
9.285559634017594
 20
9.563929162452225
 30
0.0
 40
0.0050000001599999
100
AcDbArc
 50
268.7086541079704
 51
31.9185193108029
  0
ARC
  5
433
330
1F
100
AcDbEntity
  8
SEPARATOR_BEARING
 48
0.5
100
AcDbCircle
 10
9.1694174978022
 20
10.00426677421984
 30
0.0
 40
0.0050000001599999
100
AcDbArc
 50
234.4229398222593
 51
357.6328050250858
  0
ARC
  5
434
330
1F
100
AcDbEntity
  8
SEPARATOR_BEARING
 48
0.5
100
AcDbCircle
 10
9.94125830381342
 20
9.972359747277067
 30
0.0
 40
0.7675000245599887
100
AcDbArc
 50
174.5411080183869
 51
177.6328050250908
  0
ARC
  5
435
330
1F
100
AcDbEntity
  8
SEPARATOR_BEARING
 48
0.5
100
AcDbCircle
 10
9.049518487862833
 20
10.00918910551185
 30
0.0
 40
0.0050000001599999
100
AcDbArc
 50
177.6349960140282
 51
300.8752611877558
  0
ARC
  5
436
330
1F
100
AcDbEntity
  8
SEPARATOR_BEARING
 48
0.5
100
AcDbCircle
 10
9.105710682878846
 20
9.91520672425525
 30
0.0
 40
0.1045000033439984
100
AcDbArc
 50
54.42293982229092
 51
120.8752611877615
  0
ARC
  5
437
330
1F
100
AcDbEntity
  8
SEPARATOR_BEARING
 48
0.5
100
AcDbCircle
 10
9.94125830381342
 20
9.972359747277067
 30
0.0
 40
0.7675000245599887
100
AcDbArc
 50
191.6839651612446
 51
194.7756621679489
  0
ARC
  5
438
330
1F
100
AcDbEntity
  8
SEPARATOR_BEARING
 48
0.5
100
AcDbCircle
 10
9.184764846949153
 20
9.815918263284146
 30
0.0
 40
0.0050000001599999
100
AcDbArc
 50
11.6839651612448
 51
134.8938303640512
  0
ARC
  5
439
330
1F
100
AcDbEntity
  8
SEPARATOR_BEARING
 48
0.5
100
AcDbCircle
 10
9.1943034579016
 20
9.775345163143789
 30
0.0
 40
0.0050000001599999
100
AcDbArc
 50
251.5657969651214
 51
14.77566216794641
  0
ARC
  5
43A
330
1F
100
AcDbEntity
  8
SEPARATOR_BEARING
 48
0.5
100
AcDbCircle
 10
9.067244389280912
 20
9.791650095672267
 30
0.0
 40
0.0050000001599999
100
AcDbArc
 50
68.44150899857229
 51
191.6817741722904
  0
ARC
  5
43B
330
1F
100
AcDbEntity
  8
SEPARATOR_BEARING
 48
0.5
100
AcDbCircle
 10
9.078280341944383
 20
9.744707955481111
 30
0.0
 40
0.0050000001599999
100
AcDbArc
 50
194.777853156885
 51
318.0181183306125
  0
ARC
  5
43C
330
1F
100
AcDbEntity
  8
SEPARATOR_BEARING
 48
0.5
100
AcDbCircle
 10
9.94125830381342
 20
9.972359747277067
 30
0.0
 40
0.8975000287199867
100
AcDbArc
 50
191.6817741722993
 51
194.7778531568925
  0
ARC
  5
43D
330
1F
100
AcDbEntity
  8
SEPARATOR_BEARING
 48
0.5
100
AcDbCircle
 10
9.107480259977259
 20
9.893489800486653
 30
0.0
 40
0.1045000033439984
100
AcDbArc
 50
248.441508998578
 51
314.8938303640457
  0
ARC
  5
43E
330
1F
100
AcDbEntity
  8
SEPARATOR_BEARING
 48
0.5
100
AcDbCircle
 10
9.159677868577936
 20
9.671463887971759
 30
0.0
 40
0.1045000033439984
100
AcDbArc
 50
71.56579696514859
 51
138.0181183306179
  0
ARC
  5
43F
330
1F
100
AcDbEntity
  8
BEARING_WAVE_GEN
 48
0.5
100
AcDbCircle
 10
9.110964705533593
 20
9.893819406234442
 30
0.0
 40
0.0937500029999986
100
AcDbArc
 50
213.1623849392935
 51
339.2330244391378
  0
ARC
  5
440
330
1F
100
AcDbEntity
  8
BEARING_WAVE_GEN
 48
0.5
100
AcDbCircle
 10
9.110964705533593
 20
9.893819406234442
 30
0.0
 40
0.0937500029999986
100
AcDbArc
 50
31.57442897700844
 51
157.6450684768547
  0
CIRCLE
  5
441
330
1F
100
AcDbEntity
  8
LINE_HIDDEN
100
AcDbCircle
 10
8.918482301943999
 20
10.56285974727706
 30
0.0
 40
0.079
  0
CIRCLE
  5
442
330
1F
100
AcDbEntity
  8
SPLINE_STATIC
100
AcDbCircle
 10
8.918482301943999
 20
10.56285974727706
 30
0.0
 40
0.065
  0
ARC
  5
443
330
1F
100
AcDbEntity
  8
BEARING_WAVE_GEN
 48
0.5
100
AcDbCircle
 10
9.210994189371824
 20
10.3751877101525
 30
0.0
 40
0.0937500029999986
100
AcDbArc
 50
357.2887146912965
 51
123.3593541911414
  0
ARC
  5
444
330
1F
100
AcDbEntity
  8
BEARING_WAVE_GEN
 48
0.5
100
AcDbCircle
 10
9.124702148556576
 20
10.14204206759279
 30
0.0
 40
0.0937500029999986
100
AcDbArc
 50
14.43157183415249
 51
140.5022113339965
  0
ARC
  5
445
330
1F
100
AcDbEntity
  8
SEPARATOR_BEARING
 48
0.5
100
AcDbCircle
 10
9.207929531817203
 20
10.37687823517656
 30
0.0
 40
0.1045000033439984
100
AcDbArc
 50
214.1557947128613
 51
280.608116078335
  0
ARC
  5
446
330
1F
100
AcDbEntity
  8
BEARING_WAVE_GEN
 48
0.5
100
AcDbCircle
 10
9.210994189371824
 20
10.3751877101525
 30
0.0
 40
0.0937500029999986
100
AcDbArc
 50
178.8766706535795
 51
304.9473101534283
  0
ARC
  5
447
330
1F
100
AcDbEntity
  8
SEPARATOR_BEARING
 48
0.5
100
AcDbCircle
 10
9.125985570040127
 20
10.16402785744614
 30
0.0
 40
0.1045000033439984
100
AcDbArc
 50
37.28008267943279
 51
103.7324040449057
  0
ARC
  5
448
330
1F
100
AcDbEntity
  8
SEPARATOR_BEARING
 48
0.5
100
AcDbCircle
 10
9.117316746900295
 20
10.31539999531092
 30
0.0
 40
0.0050000001599999
100
AcDbArc
 50
34.15579471285932
 51
157.3960598865745
  0
ARC
  5
449
330
1F
100
AcDbEntity
  8
SEPARATOR_BEARING
 48
0.5
100
AcDbCircle
 10
9.099991629764243
 20
10.27039780544045
 30
0.0
 40
0.0050000001599999
100
AcDbArc
 50
160.492138871172
 51
283.7324040449
  0
ARC
  5
44A
330
1F
100
AcDbEntity
  8
SEPARATOR_BEARING
 48
0.5
100
AcDbCircle
 10
9.052809270330964
 20
10.05729864227603
 30
0.0
 40
0.0050000001599999
100
AcDbArc
 50
51.29865185571395
 51
174.5389170294344
  0
ARC
  5
44B
330
1F
100
AcDbEntity
  8
SEPARATOR_BEARING
 48
0.5
100
AcDbCircle
 10
9.94125830381342
 20
9.972359747277067
 30
0.0
 40
0.8975000287199867
100
AcDbArc
 50
157.3960598865861
 51
160.4921388711795
  0
ARC
  5
44C
330
1F
100
AcDbEntity
  8
SEPARATOR_BEARING
 48
0.5
100
AcDbCircle
 10
9.94125830381342
 20
9.972359747277067
 30
0.0
 40
0.7675000245599887
100
AcDbArc
 50
157.3982508755323
 51
160.4899478822306
  0
ARC
  5
44D
330
1F
100
AcDbEntity
  8
SEPARATOR_BEARING
 48
0.5
100
AcDbCircle
 10
9.228087451389368
 20
10.26924966533613
 30
0.0
 40
0.0050000001599999
100
AcDbArc
 50
337.3982508755298
 51
100.608116078335
  0
ARC
  5
44E
330
1F
100
AcDbEntity
  8
SEPARATOR_BEARING
 48
0.5
100
AcDbCircle
 10
9.213112980484488
 20
10.23035330593037
 30
0.0
 40
0.0050000001599999
100
AcDbArc
 50
217.2800826794027
 51
340.4899478822284
  0
ARC
  5
44F
330
1F
100
AcDbEntity
  8
SEPARATOR_BEARING
 48
0.5
100
AcDbCircle
 10
9.414061974403878
 20
10.69251273882589
 30
0.0
 40
0.0050000001599999
100
AcDbArc
 50
126.2064245854586
 51
249.4466897591891
  0
ARC
  5
450
330
1F
100
AcDbEntity
  8
SEPARATOR_BEARING
 48
0.5
100
AcDbCircle
 10
9.94125830381342
 20
9.972359747277067
 30
0.0
 40
0.7675000245599887
100
AcDbArc
 50
140.255393732675
 51
143.3470907393746
  0
ARC
  5
451
330
1F
100
AcDbEntity
  8
SEPARATOR_BEARING
 48
0.5
100
AcDbCircle
 10
9.347281470936007
 20
10.46627047827741
 30
0.0
 40
0.0050000001599999
100
AcDbArc
 50
320.2553937326748
 51
83.46525893548012
  0
ARC
  5
452
330
1F
100
AcDbEntity
  8
SEPARATOR_BEARING
 48
0.5
100
AcDbCircle
 10
9.255035046609298
 20
10.54302071690069
 30
0.0
 40
0.0050000001599999
100
AcDbArc
 50
17.01293756999987
 51
140.2532027437216
  0
ARC
  5
453
330
1F
100
AcDbEntity
  8
SEPARATOR_BEARING
 48
0.5
100
AcDbCircle
 10
9.225215007492916
 20
10.50512451598275
 30
0.0
 40
0.0050000001599999
100
AcDbArc
 50
143.3492817283153
 51
266.589546902045
  0
ARC
  5
454
330
1F
100
AcDbEntity
  8
SEPARATOR_BEARING
 48
0.5
100
AcDbCircle
 10
9.94125830381342
 20
9.972359747277067
 30
0.0
 40
0.8975000287199867
100
AcDbArc
 50
140.2532027437237
 51
143.3492817283194
  0
ARC
  5
455
330
1F
100
AcDbEntity
  8
SEPARATOR_BEARING
 48
0.5
100
AcDbCircle
 10
9.218701017362626
 20
10.39581843792688
 30
0.0
 40
0.1045000033439984
100
AcDbArc
 50
20.13722553657525
 51
86.58954690204527
  0
ARC
  5
456
330
1F
100
AcDbEntity
  8
SEPARATOR_BEARING
 48
0.5
100
AcDbCircle
 10
9.32150737055768
 20
10.43351597776846
 30
0.0
 40
0.0050000001599999
100
AcDbArc
 50
200.1372255365449
 51
323.3470907393694
  0
ARC
  5
457
330
1F
100
AcDbEntity
  8
SEPARATOR_BEARING
 48
0.5
100
AcDbCircle
 10
9.359743189046529
 20
10.57505906384184
 30
0.0
 40
0.1045000033439984
100
AcDbArc
 50
197.0129375700021
 51
263.4652589354801
  0
ARC
  5
458
330
1F
100
AcDbEntity
  8
BEARING_WAVE_GEN
 48
0.5
100
AcDbCircle
 10
9.362173401466467
 20
10.57254032042933
 30
0.0
 40
0.0937500029999986
100
AcDbArc
 50
161.7338135107233
 51
287.804453010563
  0
REGION
  5
459
330
1F
100
AcDbEntity
  8
SPLINE_STATIC
100
AcDbModelerGeometry
 70
     1
  1
koo ki n o          
  1
h J1410(1 nl ^ \VL kqoqm QK mk R01 R>& nj nlemnejk mooi 
  1
rn fqfffffffffffffffj:rooh n:rono 
  1
=0;& {rn {n {rn {rn |
  1
3*2/ {rn {rn {m {o |
  1
,7:33 {rn {rn {rn {l {rn {n |
  1
9><: {rn {rn {k {m {rn {j -:):-,:; ;0*=3: 0*+ |
  1
300/ {rn {rn {i {l |
  1
/3>1:r,*-9><: {rn hqjfjklhjjhhoomnim nnqnighofhkhmhhoih o o o rn rn o o 90-(>-;@) V V V V |
  1
<0:;8: {rn {h {g {rn {f 90-(>-; {k {rn |
  1
<0:;8: {rn {no {i {rn {nn -:):-,:; {k {rn |
  1
<0:;8: {rn {i {nm {rn {nl -:):-,:; {k {rn |
  1
:;8: {rn {nk {nj {i {ni 90-(>-; |
  1
<0:;8: {rn {nh {h {rn {ng 90-(>-; {k {rn |
  1
:;8: {rn {nf {nj {h {mo 90-(>-; |
  1
<0:;8: {rn {g {mn {rn {mm -:):-,:; {k {rn |
  1
:;8: {rn {nk {ml {g {mk 90-(>-; |
  1
):-+:' {rn {f {mj |
  1
):-+:' {rn {f {mi |
  1
,+->687+r<*-): {rn hqkhhklhjjhhoomnkn nnqlljlofhkhmhhoii o o rn o V V |
  1
<0:;8: {rn {mh {no {rn {mg -:):-,:; {k {rn |
  1
:;8: {rn {nf {mf {no {lo 90-(>-; |
  1
):-+:' {rn {nn {ln |
  1
,+->687+r<*-): {rn hqjohklhjjhhoomnjl noqfhfiofhkhmhhoih o roqhohnoihgnngijkhjh oqhohnoihgnngijkhjh o V V |
  1
<0:;8: {rn {nm {mh {rn {lm -:):-,:; {k {rn |
  1
:;8: {rn {ml {ll {nm {lk 90-(>-; |
  1
):-+:' {rn {mm {lj |
  1
,+->687+r<*-): {rn hqkhhklhjjhhoomnkn nnqlljlofhkhmhhoii o oqhohnoihgnngijkhjh oqhohnoihgnngijkhjh o V V |
  1
/061+ {rn hqkhhklhjjhhoomnkn nnqlljlofhkhmhhoii o |
  1
/061+ {rn hqkhhklhjjhhoomnkn nnqoofiofhkhmhhoig o |
  1
<0:;8: {rn {mn {nh {rn {li -:):-,:; {k {rn |
  1
:;8: {rn {lh {mf {nh {lg 90-(>-; |
  1
):-+:' {rn {ng {lf |
  1
,+->687+r<*-): {rn hqjohklhjjhhoomnjl noqfhfiofhkhmhhoih o n o o V V |
  1
/061+ {rn hqjohklhjjhhoomnjl noqfhfiofhkhmhhoih o |
  1
:;8: {rn {ll {ko {mn {kn 90-(>-; |
  1
):-+:' {rn {lm {km |
  1
,+->687+r<*-): {rn hqkfmklhjjhhoomnkh nnqljolofhkhmhhoii o n o o V V |
  1
/061+ {rn hqkfmklhjjhhoomnkh nnqljolofhkhmhhoii o |
  1
:;8: {rn {ko {lh {mh {kl 90-(>-; |
  1
):-+:' {rn {mg {kk |
  1
,+->687+r<*-): {rn hqhnlklhjjhhoomngl nnqoofiofhkhmhhoig o roqhohnoihgnngijkhjh roqhohnoihgnngijkhjh o V V |
  1
/061+ {rn hqiglklhjjhhoomnhm noqfhfiofhkhmhhoih o |
  1
):-+:' {rn {li {kj |
  1
,+->687+r<*-): {rn hqifgklhjjhhoomnhg nnqljolofhkhmhhoii o oqhohnoihgnngijkhjh roqhohnoihgnngijkhjh o V V |
  1
/061+ {rn hqifgklhjjhhoomnhg nnqljolofhkhmhhoii o |
  1
,+->687+r<*-): {rn hqhnlklhjjhhoomngl nnqlljlofhkhmhhoii o o rn o V V |
  1
/061+ {rn hqhnlklhjjhhoomngl nnqoofiofhkhmhhoig o |
  1
/061+ {rn hqhnlklhjjhhoomngl nnqlljlofhkhmhhoii o |
  0
LINE
  5
45A
330
1F
100
AcDbEntity
  8
LINE_HIDDEN
100
AcDbLine
 10
7.477437557700214
 20
11.07435974727706
 30
0.0
 11
7.713437557700214
 21
11.07435974727706
 31
0.0
  0
LINE
  5
45B
330
1F
100
AcDbEntity
  8
SPLINE_STATIC
100
AcDbLine
 10
7.477437557700214
 20
11.08835974727706
 30
0.0
 11
7.713437557700214
 21
11.08835974727706
 31
0.0
  0
LINE
  5
45C
330
1F
100
AcDbEntity
  8
LINE_HIDDEN
100
AcDbLine
 10
7.477437557700214
 20
11.23235974727706
 30
0.0
 11
7.713437557700214
 21
11.23235974727706
 31
0.0
  0
LINE
  5
45D
330
1F
100
AcDbEntity
  8
SPLINE_STATIC
100
AcDbLine
 10
7.477437557700214
 20
11.21835974727707
 30
0.0
 11
7.713437557700214
 21
11.21835974727707
 31
0.0
  0
LINE
  5
45E
330
1F
100
AcDbEntity
  8
LINE_CENTER
100
AcDbLine
 10
7.427437557700213
 20
11.15335974727706
 30
0.0
 11
7.763437557700216
 21
11.15335974727706
 31
0.0
  0
REGION
  5
45F
330
1F
100
AcDbEntity
  8
SPLINE_FLEX
100
AcDbModelerGeometry
 70
     1
  1
koo li n o          
  1
h J1410(1 nl ^ \VL kqoqm QK mk R01 R>& nj nlemnejk mooi 
  1
rn fqfffffffffffffffj:rooh n:rono 
  1
=0;& {rn {n {rn {rn |
  1
3*2/ {rn {rn {m {o |
  1
,7:33 {rn {rn {rn {l {rn {n |
  1
9><: {rn {rn {k {m {rn {j 90-(>-; ;0*=3: 0*+ |
  1
300/ {rn {rn {i {l |
  1
/3>1:r,*-9><: {rn hqkioinohgiokiihl noqfilojfhkhmhhoij o o o n rn o o -:):-,:@) V V V V |
  1
<0:;8: {rn {h {g {rn {f 90-(>-; {k {rn |
  1
<0:;8: {rn {no {i {rn {nn 90-(>-; {k {rn |
  1
<0:;8: {rn {i {nm {rn {nl -:):-,:; {k {rn |
  1
:;8: {rn {nk {nj {i {ni 90-(>-; |
  1
<0:;8: {rn {nh {h {rn {ng 90-(>-; {k {rn |
  1
:;8: {rn {nj {nf {h {mo 90-(>-; |
  1
<0:;8: {rn {g {nh {rn {mn -:):-,:; {k {rn |
  1
:;8: {rn {nk {mm {g {ml 90-(>-; |
  1
):-+:' {rn {f {mk |
  1
):-+:' {rn {f {mj |
  1
,+->687+r<*-): {rn hqigninohgiokiihih noqfgmgjfhkhmhhoig o rn o o V V |
  1
<0:;8: {rn {nm {no {rn {mi 90-(>-; {k {rn |
  1
:;8: {rn {nf {mh {no {mg 90-(>-; |
  1
):-+:' {rn {nn {mf |
  1
,+->687+r<*-): {rn hqmlfinohgiokiiifk noqfgmgjfhkhmhhoig o roqhohnoihgnngijkhjh roqhohnoihgnngijkhjh o V V |
  1
:;8: {rn {mm {lo {nm {ln 90-(>-; |
  1
):-+:' {rn {mn {lm |
  1
,+->687+r<*-): {rn hqigninohgiokiihih noqfgmgjfhkhmhhoig o oqhohnoihgnngijkhjh roqhohnoihgnngijkhjh o V V |
  1
/061+ {rn hqigninohgiokiihih noqfgmgjfhkhmhhoig o |
  1
/061+ {rn hqmlfinohgiokiiifk noqfgmgjfhkhmhhoig o |
  1
:;8: {rn {mh {lo {nh {ll 90-(>-; |
  1
):-+:' {rn {ng {lk |
  1
,+->687+r<*-): {rn hqmmkinohgiokiiigg noqfihgjfhkhmhhoig o o rn o V V |
  1
/061+ {rn hqmmkinohgiokiiigg noqfihgjfhkhmhhoig o |
  1
):-+:' {rn {mi {lj |
  1
,+->687+r<*-): {rn hqifiinohgiokiihhl noqfihgjfhkhmhhoig o o rn o V V |
  1
/061+ {rn hqifiinohgiokiihhl noqfihgjfhkhmhhoig o |
  1
,+->687+r<*-): {rn hqmmkinohgiokiiigg noqflgkjfhkhmhhoij o n o o V V |
  1
/061+ {rn hqmmkinohgiokiiigg noqflgkjfhkhmhhoij o |
  1
/061+ {rn hqifiinohgiokiihhl noqflgkjfhkhmhhoij o |
  0
LWPOLYLINE
  5
460
330
1F
100
AcDbEntity
  8
SPACERS_PANCAKE
100
AcDbPolyline
 90
        4
 70
     1
 43
0.0
 10
7.175784014393129
 20
10.89735974727706
 10
7.207784014393128
 20
10.89735974727706
 10
7.207784014393128
 20
10.97735974727706
 10
7.175784014393129
 20
10.97735974727706
  0
LWPOLYLINE
  5
461
330
1F
100
AcDbEntity
  8
WEAR_WASHER
100
AcDbPolyline
 90
        4
 70
     1
 43
0.0
 10
7.745437557700214
 20
10.89735974727706
 10
7.713437557700214
 20
10.89735974727706
 10
7.713437557700214
 20
11.03485974727706
 10
7.745437557700214
 20
11.03485974727706
  0
LINE
  5
462
330
1F
100
AcDbEntity
  8
LINE_CENTER
100
AcDbLine
 10
9.94125830381342
 20
10.06235974727706
 30
0.0
 11
9.94125830381342
 21
11.39530974727706
 31
0.0
  0
ARC
  5
463
330
1F
100
AcDbEntity
  8
BEARING_WAVE_GEN
 48
0.5
100
AcDbCircle
 10
10.28838717238854
 20
10.73068526650832
 30
0.0
 40
0.0937500029999986
100
AcDbArc
 50
271.5744289770089
 51
37.64506847685562
  0
ARC
  5
464
330
1F
100
AcDbEntity
  8
BEARING_WAVE_GEN
 48
0.5
100
AcDbCircle
 10
10.04944484004587
 20
10.79931302158802
 30
0.0
 40
0.0937500029999986
100
AcDbArc
 50
288.717286119864
 51
54.78792561971403
  0
ARC
  5
465
330
1F
100
AcDbEntity
  8
SEPARATOR_BEARING
 48
0.5
100
AcDbCircle
 10
9.82182454032733
 20
10.8012999568396
 30
0.0
 40
0.1045000033439984
100
AcDbArc
 50
328.7086541080012
 51
35.16097547347618
  0
ARC
  5
466
330
1F
100
AcDbEntity
  8
BEARING_WAVE_GEN
 48
0.5
100
AcDbCircle
 10
9.800889659190158
 20
10.79446234922053
 30
0.0
 40
0.0937500029999986
100
AcDbArc
 50
305.8601432627268
 51
71.93078276256625
  0
ARC
  5
467
330
1F
100
AcDbEntity
  8
SEPARATOR_BEARING
 48
0.5
100
AcDbCircle
 10
10.04989886028182
 20
10.8027834489982
 30
0.0
 40
0.1045000033439984
100
AcDbArc
 50
145.5843661414311
 51
212.0366875069068
  0
ARC
  5
468
330
1F
100
AcDbEntity
  8
BEARING_WAVE_GEN
 48
0.5
100
AcDbCircle
 10
10.04944484004587
 20
10.79931302158802
 30
0.0
 40
0.0937500029999986
100
AcDbArc
 50
110.3052420821499
 51
236.3758815820018
  0
ARC
  5
469
330
1F
100
AcDbEntity
  8
SEPARATOR_BEARING
 48
0.5
100
AcDbCircle
 10
9.582796231287613
 20
10.72926874937078
 30
0.0
 40
0.1045000033439984
100
AcDbArc
 50
345.8515112508598
 51
52.30383261633082
  0
ARC
  5
46A
330
1F
100
AcDbEntity
  8
SEPARATOR_BEARING
 48
0.5
100
AcDbCircle
 10
9.800300582144359
 20
10.79791242009199
 30
0.0
 40
0.1045000033439984
100
AcDbArc
 50
162.7272232842906
 51
229.1795446497624
  0
ARC
  5
46B
330
1F
100
AcDbEntity
  8
BEARING_WAVE_GEN
 48
0.5
100
AcDbCircle
 10
9.564806848406874
 20
10.71656425293251
 30
0.0
 40
0.0937500029999986
100
AcDbArc
 50
323.0030004055824
 51
89.07363990542263
  0
ARC
  5
46C
330
1F
100
AcDbEntity
  8
BEARING_WAVE_GEN
 48
0.5
100
AcDbCircle
 10
9.800889659190158
 20
10.79446234922053
 30
0.0
 40
0.0937500029999986
100
AcDbArc
 50
127.4480992250073
 51
253.5187387248559
  0
ARC
  5
46D
330
1F
100
AcDbEntity
  8
SEPARATOR_BEARING
 48
0.5
100
AcDbCircle
 10
10.28984394821587
 20
10.7338676877521
 30
0.0
 40
0.1045000033439984
100
AcDbArc
 50
128.441508998574
 51
194.8938303640491
  0
ARC
  5
46E
330
1F
100
AcDbEntity
  8
SEPARATOR_BEARING
 48
0.5
100
AcDbCircle
 10
10.07146506337923
 20
10.79967618894457
 30
0.0
 40
0.1045000033439984
100
AcDbArc
 50
311.5657969651469
 51
18.01811833061877
  0
ARC
  5
46F
330
1F
100
AcDbEntity
  8
BEARING_WAVE_GEN
 48
0.5
100
AcDbCircle
 10
10.28838717238854
 20
10.73068526650832
 30
0.0
 40
0.0937500029999986
100
AcDbArc
 50
93.16238493929061
 51
219.233024439141
  0
LINE
  5
470
330
1F
100
AcDbEntity
  8
LINE_CENTER
100
AcDbLine
 10
10.03125830381341
 20
9.972359747277067
 30
0.0
 11
11.36420830381341
 21
9.972359747277067
 31
0.0
  0
LINE
  5
471
330
1F
100
AcDbEntity
  8
LINE_CENTER
100
AcDbLine
 10
9.94125830381342
 20
9.882359747277067
 30
0.0
 11
9.94125830381342
 21
8.549409747277067
 31
0.0
  0
CIRCLE
  5
472
330
1F
100
AcDbEntity
  8
SPLINE_STATIC
100
AcDbCircle
 10
10.96403430568284
 20
9.381859747277067
 30
0.0
 40
0.065
  0
ARC
  5
473
330
1F
100
AcDbEntity
  8
SEPARATOR_BEARING
 48
0.5
100
AcDbCircle
 10
10.42645070324713
 20
9.289721753592436
 30
0.0
 40
0.1045000033439984
100
AcDbArc
 50
8.441508998575701
 51
74.89383036404632
  0
ARC
  5
474
330
1F
100
AcDbEntity
  8
SEPARATOR_BEARING
 48
0.5
100
AcDbCircle
 10
9.94125830381342
 20
9.972359747277067
 30
0.0
 40
0.8975000287199867
100
AcDbArc
 50
311.6817741722986
 51
314.7778531568917
  0
ARC
  5
475
330
1F
100
AcDbEntity
  8
SEPARATOR_BEARING
 48
0.5
100
AcDbCircle
 10
10.5926319794831
 20
9.445939164914859
 30
0.0
 40
0.1045000033439984
100
AcDbArc
 50
191.5657969651457
 51
258.0181183306172
  0
ARC
  5
476
330
1F
100
AcDbEntity
  8
BEARING_WAVE_GEN
 48
0.5
100
AcDbCircle
 10
10.42442303351813
 20
9.292574569088435
 30
0.0
 40
0.0937500029999986
100
AcDbArc
 50
333.1623849392922
 51
99.23302443913984
  0
ARC
  5
477
330
1F
100
AcDbEntity
  8
BEARING_WAVE_GEN
 48
0.5
100
AcDbCircle
 10
10.42442303351813
 20
9.292574569088435
 30
0.0
 40
0.0937500029999986
100
AcDbArc
 50
151.574428977008
 51
277.6450684768505
  0
CIRCLE
  5
478
330
1F
100
AcDbEntity
  8
LINE_HIDDEN
100
AcDbCircle
 10
10.96403430568284
 20
9.381859747277067
 30
0.0
 40
0.079
  0
CIRCLE
  5
479
330
1F
100
AcDbEntity
  8
SPLINE_STATIC
100
AcDbCircle
 10
9.94125830381342
 20
8.791359747277066
 30
0.0
 40
0.065
  0
CIRCLE
  5
47A
330
1F
100
AcDbEntity
  8
LINE_HIDDEN
100
AcDbCircle
 10
9.94125830381342
 20
8.791359747277066
 30
0.0
 40
0.079
  0
ARC
  5
47B
330
1F
100
AcDbEntity
  8
BEARING_WAVE_GEN
 48
0.5
100
AcDbCircle
 10
9.711029131779142
 20
9.17076722432041
 30
0.0
 40
0.0937500029999986
100
AcDbArc
 50
100.1458575484369
 51
226.2164970482848
  0
ARC
  5
47C
330
1F
100
AcDbEntity
  8
SEPARATOR_BEARING
 48
0.5
100
AcDbCircle
 10
9.591903225635372
 20
9.283369676562257
 30
0.0
 40
0.0050000001599999
100
AcDbArc
 50
63.11253658981557
 51
186.3224017926223
  0
ARC
  5
47D
330
1F
100
AcDbEntity
  8
SEPARATOR_BEARING
 48
0.5
100
AcDbCircle
 10
9.629571779319174
 20
9.265530348736579
 30
0.0
 40
0.0050000001599999
100
AcDbArc
 50
302.9943683936911
 51
66.20423359651417
  0
ARC
  5
47E
330
1F
100
AcDbEntity
  8
SEPARATOR_BEARING
 48
0.5
100
AcDbCircle
 10
9.94125830381342
 20
9.972359747277067
 30
0.0
 40
0.8975000287199867
100
AcDbArc
 50
243.1103456008708
 51
246.2064245854655
  0
ARC
  5
47F
330
1F
100
AcDbEntity
  8
SEPARATOR_BEARING
 48
0.5
100
AcDbCircle
 10
9.581185683225584
 20
9.155717837452078
 30
0.0
 40
0.0050000001599999
100
AcDbArc
 50
246.2064245854598
 51
9.446689759187602
  0
ARC
  5
480
330
1F
100
AcDbEntity
  8
SEPARATOR_BEARING
 48
0.5
100
AcDbCircle
 10
9.537604036230231
 20
9.176357527907368
 30
0.0
 40
0.0050000001599999
100
AcDbArc
 50
119.8700804271402
 51
243.1103456008604
  0
ARC
  5
481
330
1F
100
AcDbEntity
  8
SEPARATOR_BEARING
 48
0.5
100
AcDbCircle
 10
9.689200728860949
 20
9.173690057230492
 30
0.0
 40
0.1045000033439984
100
AcDbArc
 50
122.9943683937156
 51
189.4466897591899
  0
ARC
  5
482
330
1F
100
AcDbEntity
  8
BEARING_WAVE_GEN
 48
0.5
100
AcDbCircle
 10
9.484984024008259
 20
9.274240970775634
 30
0.0
 40
0.0937500029999986
100
AcDbArc
 50
264.590956367862
 51
30.66159586771231
  0
ARC
  5
483
330
1F
100
AcDbEntity
  8
SEPARATOR_BEARING
 48
0.5
100
AcDbCircle
 10
9.94125830381342
 20
9.972359747277067
 30
0.0
 40
0.7675000245599887
100
AcDbArc
 50
243.1125365898154
 51
246.2042335965199
  0
ARC
  5
484
330
1F
100
AcDbEntity
  8
SEPARATOR_BEARING
 48
0.5
100
AcDbCircle
 10
9.483069203889176
 20
9.271311215718364
 30
0.0
 40
0.1045000033439984
100
AcDbArc
 50
299.8700804271458
 51
6.322401792619711
  0
ARC
  5
485
330
1F
100
AcDbEntity
  8
SEPARATOR_BEARING
 48
0.5
100
AcDbCircle
 10
9.810507480004112
 20
9.211005355245603
 30
0.0
 40
0.0050000001599999
100
AcDbArc
 50
80.25539373267598
 51
203.4652589354793
  0
ARC
  5
486
330
1F
100
AcDbEntity
  8
SEPARATOR_BEARING
 48
0.5
100
AcDbCircle
 10
9.94125830381342
 20
9.972359747277067
 30
0.0
 40
0.7675000245599887
100
AcDbArc
 50
260.255393732676
 51
263.347090739378
  0
ARC
  5
487
330
1F
100
AcDbEntity
  8
SEPARATOR_BEARING
 48
0.5
100
AcDbCircle
 10
9.790163035773169
 20
9.092742489058769
 30
0.0
 40
0.0050000001599999
100
AcDbArc
 50
137.0129375700001
 51
260.2532027437198
  0
ARC
  5
488
330
1F
100
AcDbEntity
  8
SEPARATOR_BEARING
 48
0.5
100
AcDbCircle
 10
9.837892128033228
 20
9.085865678101091
 30
0.0
 40
0.0050000001599999
100
AcDbArc
 50
263.349281728313
 51
26.58954690204598
  0
ARC
  5
489
330
1F
100
AcDbEntity
  8
SEPARATOR_BEARING
 48
0.5
100
AcDbCircle
 10
9.94125830381342
 20
9.972359747277067
 30
0.0
 40
0.8975000287199867
100
AcDbArc
 50
260.2532027437304
 51
263.3492817283181
  0
ARC
  5
48A
330
1F
100
AcDbEntity
  8
SEPARATOR_BEARING
 48
0.5
100
AcDbCircle
 10
9.935810963482799
 20
9.134877436196203
 30
0.0
 40
0.1045000033439984
100
AcDbArc
 50
140.1372255365729
 51
206.589546902046
  0
ARC
  5
48B
330
1F
100
AcDbEntity
  8
SEPARATOR_BEARING
 48
0.5
100
AcDbCircle
 10
9.851760759722289
 20
9.205061579812772
 30
0.0
 40
0.0050000001599999
100
AcDbArc
 50
320.137225536544
 51
83.34709073937284
  0
ARC
  5
48C
330
1F
100
AcDbEntity
  8
SEPARATOR_BEARING
 48
0.5
100
AcDbCircle
 10
9.710062942208271
 20
9.167403226921916
 30
0.0
 40
0.1045000033439984
100
AcDbArc
 50
317.0129375700001
 51
23.46525893547934
  0
ARC
  5
48D
330
1F
100
AcDbEntity
  8
BEARING_WAVE_GEN
 48
0.5
100
AcDbCircle
 10
9.957531111829379
 20
9.138518491260752
 30
0.0
 40
0.0937500029999986
100
AcDbArc
 50
117.2887146912904
 51
243.3593541911422
  0
ARC
  5
48E
330
1F
100
AcDbEntity
  8
BEARING_WAVE_GEN
 48
0.5
100
AcDbCircle
 10
9.711029131779142
 20
9.17076722432041
 30
0.0
 40
0.0937500029999986
100
AcDbArc
 50
281.7338135107198
 51
47.80445301056949
  0
ARC
  5
48F
330
1F
100
AcDbEntity
  8
BEARING_WAVE_GEN
 48
0.5
100
AcDbCircle
 10
10.20258718147535
 20
9.180360213050208
 30
0.0
 40
0.0937500029999986
100
AcDbArc
 50
134.431571834153
 51
260.5022113339935
  0
ARC
  5
490
330
1F
100
AcDbEntity
  8
SEPARATOR_BEARING
 48
0.5
100
AcDbCircle
 10
9.94125830381342
 20
9.972359747277067
 30
0.0
 40
0.7675000245599887
100
AcDbArc
 50
277.3982508755324
 51
280.4899478822285
  0
ARC
  5
491
330
1F
100
AcDbEntity
  8
SEPARATOR_BEARING
 48
0.5
100
AcDbCircle
 10
10.08190198967136
 20
9.212770620300714
 30
0.0
 40
0.0050000001599999
100
AcDbArc
 50
337.2800826794015
 51
100.4899478822284
  0
ARC
  5
492
330
1F
100
AcDbEntity
  8
SEPARATOR_BEARING
 48
0.5
100
AcDbCircle
 10
9.957599402990098
 20
9.135019157452536
 30
0.0
 40
0.1045000033439984
100
AcDbArc
 50
334.1557947128624
 51
40.60811607833636
  0
ARC
  5
493
330
1F
100
AcDbEntity
  8
SEPARATOR_BEARING
 48
0.5
100
AcDbCircle
 10
9.94125830381342
 20
9.972359747277067
 30
0.0
 40
0.8975000287199867
100
AcDbArc
 50
277.3960598865864
 51
280.4921388711786
  0
ARC
  5
494
330
1F
100
AcDbEntity
  8
SEPARATOR_BEARING
 48
0.5
100
AcDbCircle
 10
10.10378311117395
 20
9.094782407111521
 30
0.0
 40
0.0050000001599999
100
AcDbArc
 50
280.4921388711731
 51
43.73240404490096
  0
ARC
  5
495
330
1F
100
AcDbEntity
  8
SEPARATOR_BEARING
 48
0.5
100
AcDbCircle
 10
10.05614751295215
 20
9.087285303739633
 30
0.0
 40
0.0050000001599999
100
AcDbArc
 50
154.1557947128575
 51
277.3960598865813
  0
ARC
  5
496
330
1F
100
AcDbEntity
  8
SEPARATOR_BEARING
 48
0.5
100
AcDbCircle
 10
10.04072951885885
 20
9.20629071280968
 30
0.0
 40
0.0050000001599999
100
AcDbArc
 50
97.39825087553256
 51
220.6081160783364
  0
ARC
  5
497
330
1F
100
AcDbEntity
  8
SEPARATOR_BEARING
 48
0.5
100
AcDbCircle
 10
10.18290521819828
 20
9.170478793732046
 30
0.0
 40
0.1045000033439984
100
AcDbArc
 50
157.2800826794312
 51
223.7324040449046
  0
ARC
  5
498
330
1F
100
AcDbEntity
  8
BEARING_WAVE_GEN
 48
0.5
100
AcDbCircle
 10
9.957531111829379
 20
9.138518491260752
 30
0.0
 40
0.0937500029999986
100
AcDbArc
 50
298.8766706535831
 51
64.94731015342551
  0
ARC
  5
499
330
1F
100
AcDbEntity
  8
SEPARATOR_BEARING
 48
0.5
100
AcDbCircle
 10
10.29954641092734
 20
9.287972488122482
 30
0.0
 40
0.0050000001599999
100
AcDbArc
 50
354.4229398222602
 51
117.6328050250849
  0
ARC
  5
49A
330
1F
100
AcDbEntity
  8
SEPARATOR_BEARING
 48
0.5
100
AcDbCircle
 10
10.26211310373453
 20
9.269644665924756
 30
0.0
 40
0.0050000001599999
100
AcDbArc
 50
114.5411080183871
 51
237.7509732211926
  0
ARC
  5
49B
330
1F
100
AcDbEntity
  8
SEPARATOR_BEARING
 48
0.5
100
AcDbCircle
 10
9.94125830381342
 20
9.972359747277067
 30
0.0
 40
0.8975000287199867
100
AcDbArc
 50
294.5389170294419
 51
297.6349960140398
  0
ARC
  5
49C
330
1F
100
AcDbEntity
  8
SEPARATOR_BEARING
 48
0.5
100
AcDbCircle
 10
10.35523305195232
 20
9.181675733980389
 30
0.0
 40
0.0050000001599999
100
AcDbArc
 50
297.6349960140236
 51
60.87526118776104
  0
ARC
  5
49D
330
1F
100
AcDbEntity
  8
SEPARATOR_BEARING
 48
0.5
100
AcDbCircle
 10
10.31192357971616
 20
9.160470866814014
 30
0.0
 40
0.0050000001599999
100
AcDbArc
 50
171.2986518557135
 51
294.5389170294361
  0
ARC
  5
49E
330
1F
100
AcDbEntity
  8
SEPARATOR_BEARING
 48
0.5
100
AcDbCircle
 10
10.20368388539836
 20
9.177036473997699
 30
0.0
 40
0.1045000033439984
100
AcDbArc
 50
351.2986518557185
 51
57.75097322119269
  0
ARC
  5
49F
330
1F
100
AcDbEntity
  8
SEPARATOR_BEARING
 48
0.5
100
AcDbCircle
 10
10.40852808412068
 20
9.277330792986951
 30
0.0
 40
0.1045000033439984
100
AcDbArc
 50
174.422939822289
 51
240.875261187761
  0
ARC
  5
4A0
330
1F
100
AcDbEntity
  8
SEPARATOR_BEARING
 48
0.5
100
AcDbCircle
 10
9.94125830381342
 20
9.972359747277067
 30
0.0
 40
0.7675000245599887
100
AcDbArc
 50
294.5411080183871
 51
297.6328050250863
  0
ARC
  5
4A1
330
1F
100
AcDbEntity
  8
BEARING_WAVE_GEN
 48
0.5
100
AcDbCircle
 10
10.20258718147535
 20
9.180360213050208
 30
0.0
 40
0.0937500029999986
100
AcDbArc
 50
316.0195277964378
 51
82.09016729628308
  0
ARC
  5
4A2
330
1F
100
AcDbEntity
  8
SEPARATOR_BEARING
 48
0.5
100
AcDbCircle
 10
10.53476441007846
 20
9.305796319833207
 30
0.0
 40
0.0050000001599999
100
AcDbArc
 50
188.4415089985696
 51
311.6817741722896
  0
ARC
  5
4A3
330
1F
100
AcDbEntity
  8
SEPARATOR_BEARING
 48
0.5
100
AcDbCircle
 10
10.30953614444076
 20
10.72454172458899
 30
0.0
 40
0.1045000033439984
100
AcDbArc
 50
294.4229398222876
 51
0.875261187761192
  0
ARC
  5
4A4
330
1F
100
AcDbEntity
  8
SEPARATOR_BEARING
 48
0.5
100
AcDbCircle
 10
10.49881567190186
 20
10.59728860417223
 30
0.0
 40
0.1045000033439984
100
AcDbArc
 50
111.2986518557199
 51
177.7509732211925
  0
ARC
  5
4A5
330
1F
100
AcDbEntity
  8
BEARING_WAVE_GEN
 48
0.5
100
AcDbCircle
 10
10.49648558140835
 20
10.59467696118819
 30
0.0
 40
0.0937500029999986
100
AcDbArc
 50
76.01952779643553
 51
202.0901672962837
  0
ARC
  5
4A6
330
1F
100
AcDbEntity
  8
WAVE_GENERATOR
100
AcDbCircle
 10
9.94125830381342
 20
9.972359747277067
 30
0.0
 40
0.31495
100
AcDbArc
 50
100.8063441100349
 51
79.19365588996503
  0
CIRCLE
  5
4A7
330
1F
100
AcDbEntity
  8
WAVE_GENERATOR
100
AcDbCircle
 10
9.94125830381342
 20
9.972359747277067
 30
0.0
 40
0.3934999999999995
  0
LINE
  5
4A8
330
1F
100
AcDbEntity
  8
LINE_CENTER
100
AcDbLine
 10
9.896258303813418
 20
9.972359747277067
 30
0.0
 11
9.986258303813418
 21
9.972359747277067
 31
0.0
  0
CIRCLE
  5
4A9
330
1F
100
AcDbEntity
  8
LINE_HIDDEN
100
AcDbCircle
 10
9.94125830381342
 20
9.440859747277064
 30
0.0
 40
0.079
  0
CIRCLE
  5
4AA
330
1F
100
AcDbEntity
  8
SPLINE_STATIC
100
AcDbCircle
 10
9.94125830381342
 20
9.440859747277064
 30
0.0
 40
0.065
  0
LINE
  5
4AB
330
1F
100
AcDbEntity
  8
LINE_CENTER
100
AcDbLine
 10
9.94125830381342
 20
9.927359747277066
 30
0.0
 11
9.94125830381342
 21
10.01735974727706
 31
0.0
  0
ARC
  5
4AC
330
1F
100
AcDbEntity
  8
SEPARATOR_BEARING
 48
0.5
100
AcDbCircle
 10
9.94125830381342
 20
9.972359747277067
 30
0.0
 40
0.7675000245599887
100
AcDbArc
 50
88.82682230410734
 51
91.9185193108032
  0
LINE
  5
4AD
330
1F
100
AcDbEntity
  8
WAVE_GENERATOR
100
AcDbLine
 10
9.882208303813419
 20
10.34240974727706
 30
0.0
 11
10.00030830381341
 21
10.34240974727706
 31
0.0
  0
CIRCLE
  5
4AE
330
1F
100
AcDbEntity
  8
SPLINE_STATIC
100
AcDbCircle
 10
9.94125830381342
 20
10.50385974727706
 30
0.0
 40
0.065
  0
CIRCLE
  5
4AF
330
1F
100
AcDbEntity
  8
LINE_HIDDEN
100
AcDbCircle
 10
9.94125830381342
 20
10.50385974727706
 30
0.0
 40
0.079
  0
LINE
  5
4B0
330
1F
100
AcDbEntity
  8
WAVE_GENERATOR
100
AcDbLine
 10
9.882208303813419
 20
10.34240974727706
 30
0.0
 11
9.882208303813419
 21
10.28172458044334
 31
0.0
  0
ARC
  5
4B1
330
1F
100
AcDbEntity
  8
SEPARATOR_BEARING
 48
0.5
100
AcDbCircle
 10
9.688974606875808
 20
10.70250303763307
 30
0.0
 40
0.0050000001599999
100
AcDbArc
 50
165.8515112508309
 51
289.0613764536576
  0
ARC
  5
4B2
330
1F
100
AcDbEntity
  8
SEPARATOR_BEARING
 48
0.5
100
AcDbCircle
 10
9.519252938708204
 20
10.61940515527777
 30
0.0
 40
0.0050000001599999
100
AcDbArc
 50
303.112536589814
 51
66.32240179262786
  0
ARC
  5
4B3
330
1F
100
AcDbEntity
  8
SEPARATOR_BEARING
 48
0.5
100
AcDbCircle
 10
9.453727294162087
 20
10.71993570703497
 30
0.0
 40
0.0050000001599999
100
AcDbArc
 50
359.8700804271413
 51
123.1103456008622
  0
ARC
  5
4B4
330
1F
100
AcDbEntity
  8
SEPARATOR_BEARING
 48
0.5
100
AcDbCircle
 10
9.484969350782822
 20
10.59570289477661
 30
0.0
 40
0.0050000001599999
100
AcDbArc
 50
182.9943683936878
 51
306.2042335965133
  0
ARC
  5
4B5
330
1F
100
AcDbEntity
  8
SEPARATOR_BEARING
 48
0.5
100
AcDbCircle
 10
9.94125830381342
 20
9.972359747277067
 30
0.0
 40
0.7675000245599887
100
AcDbArc
 50
123.1125365898138
 51
126.2042335965207
  0
ARC
  5
4B6
330
1F
100
AcDbEntity
  8
SEPARATOR_BEARING
 48
0.5
100
AcDbCircle
 10
9.915396376570479
 20
10.74442674496036
 30
0.0
 40
0.0050000001599999
100
AcDbArc
 50
148.7086541079731
 51
271.9185193108031
  0
ARC
  5
4B7
330
1F
100
AcDbEntity
  8
SEPARATOR_BEARING
 48
0.5
100
AcDbCircle
 10
9.94125830381342
 20
9.972359747277067
 30
0.0
 40
0.7675000245599887
100
AcDbArc
 50
105.9696794469596
 51
109.0613764536634
  0
ARC
  5
4B8
330
1F
100
AcDbEntity
  8
SEPARATOR_BEARING
 48
0.5
100
AcDbCircle
 10
9.728721435110038
 20
10.71504700826526
 30
0.0
 40
0.0050000001599999
100
AcDbArc
 50
285.9696794469598
 51
49.17954464976805
  0
LINE
  5
4B9
330
1F
100
AcDbEntity
  8
WAVE_GENERATOR
100
AcDbLine
 10
10.00030830381341
 20
10.34240974727706
 30
0.0
 11
10.00030830381341
 21
10.28172458044334
 31
0.0
  0
ARC
  5
4BA
330
1F
100
AcDbEntity
  8
SEPARATOR_BEARING
 48
0.5
100
AcDbCircle
 10
9.94125830381342
 20
9.972359747277067
 30
0.0
 40
0.7675000245599887
100
AcDbArc
 50
71.68396516124343
 51
74.77566216794548
  0
ARC
  5
4BB
330
1F
100
AcDbEntity
  8
SEPARATOR_BEARING
 48
0.5
100
AcDbCircle
 10
10.14411609199389
 20
10.71774891138327
 30
0.0
 40
0.0050000001599999
100
AcDbArc
 50
131.5657969651138
 51
254.7756621679454
  0
ARC
  5
4BC
330
1F
100
AcDbEntity
  8
SEPARATOR_BEARING
 48
0.5
100
AcDbCircle
 10
9.957074764998857
 20
10.7446978388846
 30
0.0
 40
0.0050000001599999
100
AcDbArc
 50
268.826822304097
 51
32.03668750690694
  0
ARC
  5
4BD
330
1F
100
AcDbEntity
  8
SEPARATOR_BEARING
 48
0.5
100
AcDbCircle
 10
10.35481100271071
 20
10.62483997948886
 30
0.0
 40
0.0050000001599999
100
AcDbArc
 50
114.4229398222589
 51
237.6328050250905
  0
ARC
  5
4BE
330
1F
100
AcDbEntity
  8
SEPARATOR_BEARING
 48
0.5
100
AcDbCircle
 10
10.18402273290196
 20
10.70572304071472
 30
0.0
 40
0.0050000001599999
100
AcDbArc
 50
251.6839651612434
 51
14.89383036405167
  0
ARC
  5
4BF
330
1F
100
AcDbEntity
  8
SEPARATOR_BEARING
 48
0.5
100
AcDbCircle
 10
10.38940001592637
 20
10.60158569561109
 30
0.0
 40
0.0050000001599999
100
AcDbArc
 50
234.5411080183909
 51
357.7509732211926
  0
ARC
  5
4C0
330
1F
100
AcDbEntity
  8
SEPARATOR_BEARING
 48
0.5
100
AcDbCircle
 10
9.94125830381342
 20
9.972359747277067
 30
0.0
 40
0.7675000245599887
100
AcDbArc
 50
54.5411080183909
 51
57.63280502509053
  0
ARC
  5
4C1
330
1F
100
AcDbEntity
  8
SEPARATOR_BEARING
 48
0.5
100
AcDbCircle
 10
9.94125830381342
 20
9.972359747277067
 30
0.0
 40
0.8975000287199867
100
AcDbArc
 50
3.110345600872104
 51
6.206424585464022
  0
ARC
  5
4C2
330
1F
100
AcDbEntity
  8
SEPARATOR_BEARING
 48
0.5
100
AcDbCircle
 10
9.94125830381342
 20
9.972359747277067
 30
0.0
 40
0.7675000245599887
100
AcDbArc
 50
3.112536589817918
 51
6.20423359651962
  0
ARC
  5
4C3
330
1F
100
AcDbEntity
  8
SEPARATOR_BEARING
 48
0.5
100
AcDbCircle
 10
10.75895533210263
 20
10.15340632917519
 30
0.0
 40
0.1045000033439984
100
AcDbArc
 50
242.9943683937187
 51
309.4466897591908
  0
ARC
  5
4C4
330
1F
100
AcDbEntity
  8
SEPARATOR_BEARING
 48
0.5
100
AcDbCircle
 10
10.718858465256
 20
9.661322315744342
 30
0.0
 40
0.1045000033439984
100
AcDbArc
 50
208.7086541080068
 51
275.1609754734789
  0
ARC
  5
4C5
330
1F
100
AcDbEntity
  8
SEPARATOR_BEARING
 48
0.5
100
AcDbCircle
 10
10.60610604717441
 20
9.463062414633554
 30
0.0
 40
0.1045000033439984
100
AcDbArc
 50
25.58436614144014
 51
92.0366875069107
  0
ARC
  5
4C6
330
1F
100
AcDbEntity
  8
BEARING_WAVE_GEN
 48
0.5
100
AcDbCircle
 10
10.60332757899322
 20
9.465190821396843
 30
0.0
 40
0.0937500029999986
100
AcDbArc
 50
350.3052420821566
 51
116.3758815820063
  0
ARC
  5
4C7
330
1F
100
AcDbEntity
  8
BEARING_WAVE_GEN
 48
0.5
100
AcDbCircle
 10
10.60332757899322
 20
9.465190821396843
 30
0.0
 40
0.0937500029999986
100
AcDbArc
 50
168.7172861198711
 51
294.787925619718
  0
ARC
  5
4C8
330
1F
100
AcDbEntity
  8
BEARING_WAVE_GEN
 48
0.5
100
AcDbCircle
 10
10.72340436392537
 20
9.682871258443876
 30
0.0
 40
0.0937500029999986
100
AcDbArc
 50
185.8601432627228
 51
311.9307827625707
  0
ARC
  5
4C9
330
1F
100
AcDbEntity
  8
SEPARATOR_BEARING
 48
0.5
100
AcDbCircle
 10
10.60221448086321
 20
9.572493244288741
 30
0.0
 40
0.0050000001599999
100
AcDbArc
 50
148.8268223041074
 51
272.0366875069158
  0
ARC
  5
4CA
330
1F
100
AcDbEntity
  8
SEPARATOR_BEARING
 48
0.5
100
AcDbCircle
 10
10.56989951966028
 20
9.338824805290315
 30
0.0
 40
0.0050000001599999
100
AcDbArc
 50
314.7778531568842
 51
78.01811833061733
  0
ARC
  5
4CB
330
1F
100
AcDbEntity
  8
SEPARATOR_BEARING
 48
0.5
100
AcDbCircle
 10
9.94125830381342
 20
9.972359747277067
 30
0.0
 40
0.7675000245599887
100
AcDbArc
 50
311.6839651612447
 51
314.7756621679484
  0
ARC
  5
4CC
330
1F
100
AcDbEntity
  8
SEPARATOR_BEARING
 48
0.5
100
AcDbCircle
 10
10.45498733158918
 20
9.395437937832328
 30
0.0
 40
0.0050000001599999
100
AcDbArc
 50
131.6839651612427
 51
254.8938303640519
  0
ARC
  5
4CD
330
1F
100
AcDbEntity
  8
SEPARATOR_BEARING
 48
0.5
100
AcDbCircle
 10
10.48535536154479
 20
9.423985167304152
 30
0.0
 40
0.0050000001599999
100
AcDbArc
 50
11.56579696511683
 51
134.7756621679429
  0
ARC
  5
4CE
330
1F
100
AcDbEntity
  8
SEPARATOR_BEARING
 48
0.5
100
AcDbCircle
 10
9.94125830381342
 20
9.972359747277051
 30
0.0
 40
0.7675000245599887
100
AcDbArc
 50
328.8268223041071
 51
331.9185193108111
  0
ARC
  5
4CF
330
1F
100
AcDbEntity
  8
SEPARATOR_BEARING
 48
0.5
100
AcDbCircle
 10
10.6228189008522
 20
9.608723334418618
 30
0.0
 40
0.0050000001599999
100
AcDbArc
 50
28.70865410798149
 51
151.9185193108089
  0
ARC
  5
4D0
330
1F
100
AcDbEntity
  8
SEPARATOR_BEARING
 48
0.5
100
AcDbCircle
 10
9.94125830381342
 20
9.972359747277051
 30
0.0
 40
0.8975000287199867
100
AcDbArc
 50
328.8246313151643
 51
331.9207102997558
  0
ARC
  5
4D1
330
1F
100
AcDbEntity
  8
SEPARATOR_BEARING
 48
0.5
100
AcDbCircle
 10
10.72870845659374
 20
9.552266236418054
 30
0.0
 40
0.0050000001599999
100
AcDbArc
 50
331.9207102997468
 51
95.16097547347888
  0
ARC
  5
4D2
330
1F
100
AcDbEntity
  8
SEPARATOR_BEARING
 48
0.5
100
AcDbCircle
 10
10.70486961834046
 20
9.510348858546203
 30
0.0
 40
0.0050000001599999
100
AcDbArc
 50
205.5843661414331
 51
328.824631315155
  0
CIRCLE
  5
4D3
330
1F
100
AcDbEntity
  8
WAVE_GENERATOR
100
AcDbCircle
 10
10.47225830381341
 20
9.972359747277067
 30
0.0
 40
0.06425
  0
ARC
  5
4D4
330
1F
100
AcDbEntity
  8
SEPARATOR_BEARING
 48
0.5
100
AcDbCircle
 10
10.83244358104796
 20
10.02078600688885
 30
0.0
 40
0.0050000001599999
100
AcDbArc
 50
239.8700804271451
 51
3.110345600861783
  0
ARC
  5
4D5
330
1F
100
AcDbEntity
  8
SEPARATOR_BEARING
 48
0.5
100
AcDbCircle
 10
10.71261874709669
 20
10.01430440999118
 30
0.0
 40
0.0050000001599999
100
AcDbArc
 50
183.1125365898179
 51
306.3224017926243
  0
ARC
  5
4D6
330
1F
100
AcDbEntity
  8
BEARING_WAVE_GEN
 48
0.5
100
AcDbCircle
 10
10.77398403902515
 20
9.92627401812305
 30
0.0
 40
0.0937500029999986
100
AcDbArc
 50
24.59095636786734
 51
150.6615958677103
  0
ARC
  5
4D7
330
1F
100
AcDbEntity
  8
SEPARATOR_BEARING
 48
0.5
100
AcDbCircle
 10
10.77747869139114
 20
9.926080612784877
 30
0.0
 40
0.1045000033439984
100
AcDbArc
 50
59.87008042714538
 51
126.3224017926185
  0
ARC
  5
4D8
330
1F
100
AcDbEntity
  8
SEPARATOR_BEARING
 48
0.5
100
AcDbCircle
 10
9.94125830381342
 20
9.972359747277067
 30
0.0
 40
0.7675000245599887
100
AcDbArc
 50
345.969679446958
 51
349.0613764536608
  0
ARC
  5
4D9
330
1F
100
AcDbEntity
  8
SEPARATOR_BEARING
 48
0.5
100
AcDbCircle
 10
10.69071277324797
 20
9.785078444320902
 30
0.0
 40
0.0050000001599999
100
AcDbArc
 50
165.969679446958
 51
289.1795446497673
  0
ARC
  5
4DA
330
1F
100
AcDbEntity
  8
SEPARATOR_BEARING
 48
0.5
100
AcDbCircle
 10
10.69972279013327
 20
9.825772192607685
 30
0.0
 40
0.0050000001599999
100
AcDbArc
 50
45.85151125082953
 51
169.0613764536584
  0
ARC
  5
4DB
330
1F
100
AcDbEntity
  8
SEPARATOR_BEARING
 48
0.5
100
AcDbCircle
 10
10.80712461025367
 20
9.755953092224338
 30
0.0
 40
0.0050000001599999
100
AcDbArc
 50
222.727223284284
 51
345.9674884580043
  0
ARC
  5
4DC
330
1F
100
AcDbEntity
  8
SEPARATOR_BEARING
 48
0.5
100
AcDbCircle
 10
10.77599176424261
 20
9.904342507330792
 30
0.0
 40
0.1045000033439984
100
AcDbArc
 50
225.8515112508643
 51
292.3038326163318
  0
ARC
  5
4DD
330
1F
100
AcDbEntity
  8
SEPARATOR_BEARING
 48
0.5
100
AcDbCircle
 10
10.72668675146779
 20
9.681656378694581
 30
0.0
 40
0.1045000033439984
100
AcDbArc
 50
42.72722328429135
 51
109.1795446497616
  0
ARC
  5
4DE
330
1F
100
AcDbEntity
  8
SEPARATOR_BEARING
 48
0.5
100
AcDbCircle
 10
9.94125830381342
 20
9.972359747277067
 30
0.0
 40
0.8975000287199867
100
AcDbArc
 50
345.9674884580143
 51
349.0635674426068
  0
ARC
  5
4DF
330
1F
100
AcDbEntity
  8
SEPARATOR_BEARING
 48
0.5
100
AcDbCircle
 10
10.81754899178456
 20
9.803034819535623
 30
0.0
 40
0.0050000001599999
100
AcDbArc
 50
349.0635674425992
 51
112.3038326163259
  0
ARC
  5
4E0
330
1F
100
AcDbEntity
  8
BEARING_WAVE_GEN
 48
0.5
100
AcDbCircle
 10
10.72340436392537
 20
9.682871258443876
 30
0.0
 40
0.0937500029999986
100
AcDbArc
 50
7.448099225009811
 51
133.5187387248526
  0
ARC
  5
4E1
330
1F
100
AcDbEntity
  8
BEARING_WAVE_GEN
 48
0.5
100
AcDbCircle
 10
10.77398403902515
 20
9.92627401812305
 30
0.0
 40
0.0937500029999986
100
AcDbArc
 50
203.003000405578
 51
329.0736399054276
  0
ARC
  5
4E2
330
1F
100
AcDbEntity
  8
BEARING_WAVE_GEN
 48
0.5
100
AcDbCircle
 10
10.65524961023908
 20
10.40337304041794
 30
0.0
 40
0.0937500029999986
100
AcDbArc
 50
237.2887146912964
 51
3.35935419114115
  0
ARC
  5
4E3
330
1F
100
AcDbEntity
  8
BEARING_WAVE_GEN
 48
0.5
100
AcDbCircle
 10
10.65524961023908
 20
10.40337304041794
 30
0.0
 40
0.0937500029999986
100
AcDbArc
 50
58.8766706535826
 51
184.9473101534247
  0
ARC
  5
4E4
330
1F
100
AcDbEntity
  8
SEPARATOR_BEARING
 48
0.5
100
AcDbCircle
 10
9.94125830381342
 20
9.972359747277067
 30
0.0
 40
0.8975000287199867
100
AcDbArc
 50
20.25320274372457
 51
23.34928172831719
  0
ARC
  5
4E5
330
1F
100
AcDbEntity
  8
SEPARATOR_BEARING
 48
0.5
100
AcDbCircle
 10
10.6505067811603
 20
10.27850168424996
 30
0.0
 40
0.0050000001599999
100
AcDbArc
 50
80.13722553654195
 51
203.3470907393665
  0
ARC
  5
4E6
330
1F
100
AcDbEntity
  8
SEPARATOR_BEARING
 48
0.5
100
AcDbCircle
 10
10.76066777591413
 20
10.32608904774735
 30
0.0
 40
0.0050000001599999
100
AcDbArc
 50
23.34928172830803
 51
146.5895469020369
  0
ARC
  5
4E7
330
1F
100
AcDbEntity
  8
SEPARATOR_BEARING
 48
0.5
100
AcDbCircle
 10
10.8285272538108
 20
10.06884866555322
 30
0.0
 40
0.0050000001599999
100
AcDbArc
 50
6.206424585456321
 51
129.4466897591834
  0
ARC
  5
4E8
330
1F
100
AcDbEntity
  8
SEPARATOR_BEARING
 48
0.5
100
AcDbCircle
 10
10.66598596050016
 20
10.23980340830818
 30
0.0
 40
0.0050000001599999
100
AcDbArc
 50
200.2553937326687
 51
323.4652589354711
  0
ARC
  5
4E9
330
1F
100
AcDbEntity
  8
SEPARATOR_BEARING
 48
0.5
100
AcDbCircle
 10
10.70923378133828
 20
10.05584599831801
 30
0.0
 40
0.0050000001599999
100
AcDbArc
 50
62.99436839368994
 51
186.2042335965143
  0
ARC
  5
4EA
330
1F
100
AcDbEntity
  8
BEARING_WAVE_GEN
 48
0.5
100
AcDbCircle
 10
10.75057237819466
 20
10.17377169708144
 30
0.0
 40
0.0937500029999986
100
AcDbArc
 50
220.1458575484322
 51
346.2164970482763
  0
ARC
  5
4EB
330
1F
100
AcDbEntity
  8
SEPARATOR_BEARING
 48
0.5
100
AcDbCircle
 10
10.66926293059485
 20
10.38638336770811
 30
0.0
 40
0.1045000033439984
100
AcDbArc
 50
260.1372255365681
 51
326.589546902042
  0
ARC
  5
4EC
330
1F
100
AcDbEntity
  8
SEPARATOR_BEARING
 48
0.5
100
AcDbCircle
 10
9.94125830381342
 20
9.972359747277067
 30
0.0
 40
0.7675000245599887
100
AcDbArc
 50
20.25539373266874
 51
23.34709073936886
  0
ARC
  5
4ED
330
1F
100
AcDbEntity
  8
SEPARATOR_BEARING
 48
0.5
100
AcDbCircle
 10
10.77857682905777
 20
10.28131603587173
 30
0.0
 40
0.0050000001599999
100
AcDbArc
 50
257.0129375699936
 51
20.25320274371309
  0
ARC
  5
4EE
330
1F
100
AcDbEntity
  8
SEPARATOR_BEARING
 48
0.5
100
AcDbCircle
 10
10.75396878018547
 20
10.17461695106743
 30
0.0
 40
0.1045000033439984
100
AcDbArc
 50
77.01293756999364
 51
143.465258935469
  0
ARC
  5
4EF
330
1F
100
AcDbEntity
  8
BEARING_WAVE_GEN
 48
0.5
100
AcDbCircle
 10
10.75057237819466
 20
10.17377169708144
 30
0.0
 40
0.0937500029999986
100
AcDbArc
 50
41.73381351071961
 51
167.804453010561
  0
ARC
  5
4F0
330
1F
100
AcDbEntity
  8
SEPARATOR_BEARING
 48
0.5
100
AcDbCircle
 10
9.94125830381342
 20
9.972359747277067
 30
0.0
 40
0.8975000287199867
100
AcDbArc
 50
37.3960598865855
 51
40.49213887117967
  0
ARC
  5
4F1
330
1F
100
AcDbEntity
  8
SEPARATOR_BEARING
 48
0.5
100
AcDbCircle
 10
10.65824597663295
 20
10.4051818492021
 30
0.0
 40
0.1045000033439984
100
AcDbArc
 50
94.15579471286241
 51
160.608116078335
  0
ARC
  5
4F2
330
1F
100
AcDbEntity
  8
SEPARATOR_BEARING
 48
0.5
100
AcDbCircle
 10
10.62000017050208
 20
10.55189902927923
 30
0.0
 40
0.0050000001599999
100
AcDbArc
 50
40.49213887117042
 51
163.7324040449005
  0
ARC
  5
4F3
330
1F
100
AcDbEntity
  8
SEPARATOR_BEARING
 48
0.5
100
AcDbCircle
 10
10.4190233716251
 20
10.72621440233896
 30
0.0
 40
0.0050000001599999
100
AcDbArc
 50
57.63499601402561
 51
180.8752611877585
  0
ARC
  5
4F4
330
1F
100
AcDbEntity
  8
SEPARATOR_BEARING
 48
0.5
100
AcDbCircle
 10
10.45904206139314
 20
10.69930973274115
 30
0.0
 40
0.0050000001599999
100
AcDbArc
 50
291.2986518557095
 51
54.53891702943468
  0
ARC
  5
4F5
330
1F
100
AcDbEntity
  8
SEPARATOR_BEARING
 48
0.5
100
AcDbCircle
 10
9.94125830381342
 20
9.972359747277067
 30
0.0
 40
0.8975000287199867
100
AcDbArc
 50
54.53891702944189
 51
57.63499601403275
  0
ARC
  5
4F6
330
1F
100
AcDbEntity
  8
SEPARATOR_BEARING
 48
0.5
100
AcDbCircle
 10
9.94125830381342
 20
9.972359747277067
 30
0.0
 40
0.7675000245599887
100
AcDbArc
 50
37.39825087553004
 51
40.4899478822311
  0
ARC
  5
4F7
330
1F
100
AcDbEntity
  8
SEPARATOR_BEARING
 48
0.5
100
AcDbCircle
 10
10.55495794119208
 20
10.4415388636854
 30
0.0
 40
0.0050000001599999
100
AcDbArc
 50
217.3982508755298
 51
340.608116078335
  0
ARC
  5
4F8
330
1F
100
AcDbEntity
  8
SEPARATOR_BEARING
 48
0.5
100
AcDbCircle
 10
10.5287599412844
 20
10.47395531560012
 30
0.0
 40
0.0050000001599999
100
AcDbArc
 50
97.2800826794014
 51
220.489947882229
  0
ARC
  5
4F9
330
1F
100
AcDbEntity
  8
SEPARATOR_BEARING
 48
0.5
100
AcDbCircle
 10
10.51488412320185
 20
10.582572590653
 30
0.0
 40
0.1045000033439984
100
AcDbArc
 50
277.2800826794276
 51
343.7324040449031
  0
ARC
  5
4FA
330
1F
100
AcDbEntity
  8
BEARING_WAVE_GEN
 48
0.5
100
AcDbCircle
 10
10.49648558140835
 20
10.59467696118819
 30
0.0
 40
0.0937500029999986
100
AcDbArc
 50
254.4315718341548
 51
20.50221133399924
  0
ARC
  5
4FB
330
1F
100
AcDbEntity
  8
SEPARATOR_BEARING
 48
0.5
100
AcDbCircle
 10
10.65031065158783
 20
10.51439394278063
 30
0.0
 40
0.0050000001599999
100
AcDbArc
 50
274.1557947128572
 51
37.39605988657825
  0
CIRCLE
  5
4FC
330
1F
100
AcDbEntity
  8
SPLINE_STATIC
100
AcDbCircle
 10
10.96403430568285
 20
10.56285974727706
 30
0.0
 40
0.065
  0
CIRCLE
  5
4FD
330
1F
100
AcDbEntity
  8
LINE_HIDDEN
100
AcDbCircle
 10
10.96403430568285
 20
10.56285974727706
 30
0.0
 40
0.079
  0
CIRCLE
  5
4FE
330
1F
100
AcDbEntity
  8
LINE_HIDDEN
100
AcDbCircle
 10
9.94125830381342
 20
11.15335974727706
 30
0.0
 40
0.079
  0
CIRCLE
  5
4FF
330
1F
100
AcDbEntity
  8
SPLINE_STATIC
100
AcDbCircle
 10
9.94125830381342
 20
11.15335974727706
 30
0.0
 40
0.065
  0
ARC
  5
500
330
1F
100
AcDbEntity
  8
SEPARATOR_BEARING
 48
0.5
100
AcDbCircle
 10
9.94125830381342
 20
9.972359747277067
 30
0.0
 40
0.8975000287199867
100
AcDbArc
 50
88.82463131515475
 51
91.92071029975064
  0
ARC
  5
501
330
1F
100
AcDbEntity
  8
SEPARATOR_BEARING
 48
0.5
100
AcDbCircle
 10
9.94125830381342
 20
9.972359747277067
 30
0.0
 40
0.8975000287199867
100
AcDbArc
 50
105.9674884580116
 51
109.0635674426053
  0
ARC
  5
502
330
1F
100
AcDbEntity
  8
SEPARATOR_BEARING
 48
0.5
100
AcDbCircle
 10
9.649752648745909
 20
10.81591220803055
 30
0.0
 40
0.0050000001599999
100
AcDbArc
 50
109.0635674425995
 51
232.3038326163306
  0
ARC
  5
503
330
1F
100
AcDbEntity
  8
SEPARATOR_BEARING
 48
0.5
100
AcDbCircle
 10
9.911344879792149
 20
10.86435833922826
 30
0.0
 40
0.0050000001599999
100
AcDbArc
 50
91.92071029974545
 51
215.1609754734709
  0
ARC
  5
504
330
1F
100
AcDbEntity
  8
SEPARATOR_BEARING
 48
0.5
100
AcDbCircle
 10
9.695738811416987
 20
10.8304252924617
 30
0.0
 40
0.0050000001599999
100
AcDbArc
 50
342.7272232842841
 51
105.967488458006
  0
ARC
  5
505
330
1F
100
AcDbEntity
  8
SEPARATOR_BEARING
 48
0.5
100
AcDbCircle
 10
9.95956581301584
 20
10.86467198864015
 30
0.0
 40
0.0050000001599999
100
AcDbArc
 50
325.5843661414268
 51
88.82463131514956
  0
ARC
  5
506
330
1F
100
AcDbEntity
  8
SEPARATOR_BEARING
 48
0.5
100
AcDbCircle
 10
9.94125830381342
 20
9.972359747277067
 30
0.0
 40
0.8975000287199867
100
AcDbArc
 50
71.68177417230079
 51
74.77785315689485
  0
ARC
  5
507
330
1F
100
AcDbEntity
  8
SEPARATOR_BEARING
 48
0.5
100
AcDbCircle
 10
10.2217661120809
 20
10.81963282632572
 30
0.0
 40
0.0050000001599999
100
AcDbArc
 50
308.4415089985738
 51
71.68177417229014
  0
ARC
  5
508
330
1F
100
AcDbEntity
  8
SEPARATOR_BEARING
 48
0.5
100
AcDbCircle
 10
10.17559504983561
 20
10.83354648105977
 30
0.0
 40
0.0050000001599999
100
AcDbArc
 50
74.77785315688986
 51
198.0181183306161
  0
TEXT
  5
509
330
1F
100
AcDbEntity
  8
0
100
AcDbText
 10
6.255058606792004
 20
7.762544885688571
 30
0.0
 40
0.266212070534916
  1
HDB-020
100
AcDbText
  0
INSERT
  5
550
330
1F
100
AcDbEntity
  8
0
100
AcDbBlockReference
  2
Notice
 10
4.525189598140539
 20
5.156314242144512
 30
0.0
 41
1.226890408509056
 42
1.226890408509056
 43
1.226890408509056
  0
INSERT
  5
5BF
330
1F
100
AcDbEntity
  8
0
100
AcDbBlockReference
  2
HD logo-new
 10
8.600595978073826
 20
5.124521321310838
 30
0.0
 41
0.0238269392230417
 42
0.0238269392230417
 43
0.0238269392230417
  0
INSERT
  5
5CA
330
1F
100
AcDbEntity
  8
0
100
AcDbBlockReference
  2
HD LLC
 10
11.11210502977065
 20
4.956651276562815
 30
0.0
 41
0.023143526204926
 42
0.023143526204926
 43
0.023143526204926
  0
ENDSEC
  0
SECTION
  2
OBJECTS
  0
DICTIONARY
  5
C
330
0
100
AcDbDictionary
281
     1
  3
ACAD_GROUP
350
D
  3
ACAD_LAYOUT
350
1A
  3
ACAD_MLINESTYLE
350
17
  3
ACAD_PLOTSETTINGS
350
19
  3
ACAD_PLOTSTYLENAME
350
E
  3
AcDbVariableDictionary
350
50A
  0
DICTIONARY
  5
D
102
{ACAD_REACTORS
330
C
102
}
330
C
100
AcDbDictionary
281
     1
  0
DICTIONARY
  5
1A
102
{ACAD_REACTORS
330
C
102
}
330
C
100
AcDbDictionary
281
     1
  3
Layout1
350
1E
  3
Layout2
350
26
  3
Model
350
22
  0
DICTIONARY
  5
17
102
{ACAD_REACTORS
330
C
102
}
330
C
100
AcDbDictionary
281
     1
  3
Standard
350
18
  0
DICTIONARY
  5
19
102
{ACAD_REACTORS
330
C
102
}
330
C
100
AcDbDictionary
281
     1
  0
ACDBDICTIONARYWDFLT
  5
E
102
{ACAD_REACTORS
330
C
102
}
330
C
100
AcDbDictionary
281
     1
  3
Normal
350
F
100
AcDbDictionaryWithDefault
340
F
  0
DICTIONARY
  5
50A
102
{ACAD_REACTORS
330
C
102
}
330
C
100
AcDbDictionary
281
     1
  3
DIMASSOC
350
50C
  3
HIDETEXT
350
50B
  0
LAYOUT
  5
1E
102
{ACAD_REACTORS
330
1A
102
}
330
1A
100
AcDbPlotSettings
  1

  2
\\HARMONIC-NT2\8100 Engineering
  4

  6

 40
0.0
 41
0.0
 42
0.0
 43
0.0
 44
0.0
 45
0.0
 46
0.0
 47
0.0
 48
0.0
 49
0.0
140
0.0
141
0.0
142
1.0
143
1.0
 70
   688
 72
     0
 73
     0
 74
     5
  7

 75
    16
147
1.0
148
0.0
149
0.0
100
AcDbLayout
  1
Layout1
 70
     1
 71
     1
 10
0.0
 20
0.0
 11
12.0
 21
9.0
 12
0.0
 22
0.0
 32
0.0
 14
1.000000000000000E+20
 24
1.000000000000000E+20
 34
1.000000000000000E+20
 15
-1.000000000000000E+20
 25
-1.000000000000000E+20
 35
-1.000000000000000E+20
146
0.0
 13
0.0
 23
0.0
 33
0.0
 16
1.0
 26
0.0
 36
0.0
 17
0.0
 27
1.0
 37
0.0
 76
     0
330
1B
  0
LAYOUT
  5
26
102
{ACAD_REACTORS
330
1A
102
}
330
1A
100
AcDbPlotSettings
  1

  2
\\HARMONIC-NT2\8100 Engineering
  4

  6

 40
0.0
 41
0.0
 42
0.0
 43
0.0
 44
0.0
 45
0.0
 46
0.0
 47
0.0
 48
0.0
 49
0.0
140
0.0
141
0.0
142
1.0
143
1.0
 70
   688
 72
     0
 73
     0
 74
     5
  7

 75
    16
147
1.0
148
0.0
149
0.0
100
AcDbLayout
  1
Layout2
 70
     1
 71
     2
 10
0.0
 20
0.0
 11
12.0
 21
9.0
 12
0.0
 22
0.0
 32
0.0
 14
0.0
 24
0.0
 34
0.0
 15
0.0
 25
0.0
 35
0.0
146
0.0
 13
0.0
 23
0.0
 33
0.0
 16
1.0
 26
0.0
 36
0.0
 17
0.0
 27
1.0
 37
0.0
 76
     0
330
23
  0
LAYOUT
  5
22
102
{ACAD_REACTORS
330
1A
102
}
330
1A
100
AcDbPlotSettings
  1

  2
\\HARMONIC-NT2\8100 Engineering
  4

  6

 40
0.0
 41
0.0
 42
0.0
 43
0.0
 44
0.0
 45
0.0
 46
0.0
 47
0.0
 48
0.0
 49
0.0
140
0.0
141
0.0
142
1.0
143
1.0
 70
  1712
 72
     0
 73
     0
 74
     0
  7

 75
     0
147
1.0
148
0.0
149
0.0
100
AcDbLayout
  1
Model
 70
     1
 71
     0
 10
0.0
 20
0.0
 11
12.0
 21
9.0
 12
0.0
 22
0.0
 32
0.0
 14
0.0
 24
0.0
 34
0.0
 15
0.0
 25
0.0
 35
0.0
146
0.0
 13
0.0
 23
0.0
 33
0.0
 16
1.0
 26
0.0
 36
0.0
 17
0.0
 27
1.0
 37
0.0
 76
     0
330
1F
  0
MLINESTYLE
  5
18
102
{ACAD_REACTORS
330
17
102
}
330
17
100
AcDbMlineStyle
  2
STANDARD
 70
     0
  3

 62
   256
 51
90.0
 52
90.0
 71
     2
 49
0.5
 62
   256
  6
BYLAYER
 49
-0.5
 62
   256
  6
BYLAYER
  0
ACDBPLACEHOLDER
  5
F
102
{ACAD_REACTORS
330
E
102
}
330
E
  0
DICTIONARYVAR
  5
50C
102
{ACAD_REACTORS
330
50A
102
}
330
50A
100
DictionaryVariables
280
     0
  1
2
  0
DICTIONARYVAR
  5
50B
102
{ACAD_REACTORS
330
50A
102
}
330
50A
100
DictionaryVariables
280
     0
  1
1
  0
ENDSEC
  0
EOF
